Make your own free website on Tripod.com

[A Fire Inside EP]

 

3 1/2

Over Exposure

The Hanging Garden

Demonomania

 


3 1/2    Printable Text Version

Tabbed by Samhain138

 

*Note: Exact amount of strums and palm muting not shown*

Intro: Repeat E chord a whole bunch of times
|---|---|
|---|---|
|---|-9-|
|-2-|-X-|
|-2-|-7-|
|-0-|---|

Pre-Verse:
|-----------------------------------------|
|-----------------------------------------|
|-----------------------------------------|
|-9\7--7/9--9\7--7/9--9\7--7/9--9\7--7/9--|
|-9\7--7/9--9\7--7/9--9\7--7/9--9\7--7/9--|
|-7\5--5/7--7\5--5/7--7\5--5/7--7\5--5/7--|

Verse 1:
|------------------------------------------------------------------------------|
|------------------------------------------------------------------------------|
|-------------------------------12--------------3---6--------------------------|
|-7---10-9---10---10/12--10/12--12---7---10-9---X---X---7---10-9---10---10/12--|
|-7---10-9---10---10/10--10/12--10---7---10-9---1---4---7---10-9---10---10/12--|
|-5---8--7---8----8-/10--8-/10-------5---8--7-----------5---8--7---8----8-/10--|

|---------------------------|
|---------------------------|
|--------12---10---9-7------|
|-10/12--12---10---9-7---7--|
|-10/12--10---8----7-5---7--|
|-8-/10--------------5---5--|

Chorus 1: Repeat this 4 times
|-------------------------X--|
|-------------------------X--|
|---------------------9---X--|
|-9\7--7/9--9\7--7/9--9---X--|
|-9\7--7/9--9\7--7/9--7---X--|
|-7\5--5/7--7\5--5/7--7---X--|

Verse 2: Same as Verse 1

Chorus 2: Same as Chorus 1

Bridge: Basically the same as the intro

Outro Chorus:
|-----------------------------------------|
|-----------------------------------------|
|-----------------------------------------|
|-9\7--7/9--9\7--7/9--9\7--7/9--9\7--7/9--|
|-9\7--7/9--9\7--7/9--9\7--7/9--9\7--7/9--|
|-7\5--5/7--7\5--5/7--7\5--5/7--7\5--5/7--|

|-----------------------------------------|
|-----------------------------------------|
|-----------------------------------------|
|-9\7--7/9--9\7--7/9--9\7--7/9--9\7--7/9--|
|-9\7--7/9--9\7--7/9--9\7--7/9--9\7--7/9--|
|-7\5--5/7--7\5--5/7--7\5--5/7--7\5--5/7--|

|-------------------------X--------|
|-------------------------X--------|
|---------------------9---X--------|
|-9\7--7/9--9\7--7/9--9---X--2--5--|
|-9\7--7/9--9\7--7/9--7---X--2--5--|
|-7\5--5/7--7\5--5/7--7---X--0--3--|


OVER EXPOSURE     Printable Text Version

Tabbed by Samhain138

 

*Note: Exact amount of strums and palm muting not shown*

Intro:
|-----------------------------------------------------------------|
|-----------------------------------------------------------------|
|---------------------------7--8---10---10------------------------|
|-5--6--7---7---10---7--10--7--8---10---10---7--------------5--6--|
|-5--6--7---7---10---7--10--5--6---8----8----7--------------5--6--|
|-3--4--5---5---8----5--8--------------------5-(pick slide)-3--4--|

Verse 1: Played twice
|-----------------------------------------------|
|-----------------------------------------------|
|------------7--8---10---11-10-8--10---11-10-8--|
|-7---10-7---7--8---10---11-10-8--10---11-10-8--|
|-7---10-7---5--6---8----9--8--6--8----9--8--6--|
|-5---8--5--------------------------------------|

Chorus 1:
|------------------------------------------------------------|
|------------------------------------------------------------|
|-14---7---12---10---12-13-----7---12---10---10--------------|
|-14---7---12---10---12-13-7---7---12---10---10-5-6-7---5-6--|
|-12---5---10---8----10-11-7---5---10---8----8--5-6-7---5-6--|
|-12-----------------------5--------------------3-4-5---3-4--|

Verse 2: Same as Verse 1

Chorus 2: Same as Chorus 1

Interlude:
|-------------------------------------------0-----------------------------|
|-------------------------------------------0-----------------------------|
|-------------------------------5---8-------0----------5---8--------------|
|-5-6-7-----------7------7------5---8---7---7---7------5---8---5-6-7---7--|
|-5-6-7---9---8---7-------------3---6---7---7----------3---6---5-6-7---7--|
|-3-4-5---5---5---5---------------------5---5------------------3-4-5---5--|

|------------------------------------------------------|
|------------------------------------------------------|
|------------------------------------------------------|
|-5-6-7---7---5-6-7---7---5-6-7---7---5-6-7--7------7--|
|-5-6-7---6---5-6-7---7---5-6-7---7---5-6-7---------7--|
|-3-4-5---5---3-4-5---5---3-4-5---5---3-4-5---------5--|


THE HANGING GARDEN     Printable Text Version

Tabbed by Samhain138

 

*Note: Exact amount of strums and palm muting not shown.*
*He fools around a lot with string harmonics during the verses.*
*Originally performed by The Cure*

Part 1:
|-----------------------------------------------------------------------------|
|-----------------------------------------------------------------------------|
|-----------------------------------------------------------------------------|
|---------------/10--10--10-10-10-10--9-----------10--10-10-10-10--9----------|
|-5------5-------------------------------10--12-----------------------10--12--|
|-----------------------------------------------------------------------------|

Part 2:
|------------------------------------------------------------|
|------------------------------------------------------------|
|-7---7-7-7-9-7--5--7---------7---7--7--7--9--7--5--7--9--7--|
|-7--------------------7------7------------------------------|
|-5---------------------------5------------------------------|
|------------------------------------------------------------|

Chorus 1:
|----------------------------------------------|
|----------------------------------------------|
|----------------------------------------------|
|-7---8---10-7---8---10--12--7---8---10-7---5--|
|-7---8---10-7---8---10--12--7---8---10-7---5--|
|-5---6---8--5---6---8---10--5---6---8--5---3--|

Part 3: Same as Part 2

Part 4:
|-----------------------------|
|-----------------------------|
|-7------7------7------7---7--|
|-7------7------7------7---7--|
|-5------5------5------5---5--|
|-----------------------------|

Chorus 2: Same as Chorus 1

Part 5:
|------------------------------------------|
|------------------------------------------|
|-----7-------7-------7-----------------7--|
|-3---7---3---7---3---7---3---5---7--8--7--|
|-3---5---3---5---3---5---3---5---7--8--5--|
|-1---5---1---5---1---5---1---3---5--6-----|

Solo:
|-------------------------------------------------------------------------------|
|-------------------------------------------------------------------------------|
|--------10--9---7------10--10-10-9-10-12-12---9/10--10-9-10-12-14---9/10--10-9-|
|-------------------------------------------------------------------------------|
|-5-----------------------------------------------------------------------------|
|-------------------------------------------------------------------------------|

|--------------------------------------------------------------10---12--|
|---------------------------10-11-10--11/13--13-11---13--13-13----------|
|-7--/10--10-10-9-7-9-10-12---------------------------------------------|
|-----------------------------------------------------------------------|
|-----------------------------------------------------------------------|
|-----------------------------------------------------------------------|

|-12--12-12\10-10-10--10-10-10-10/12------12\------|
|--------------------------------------------------|
|-----------------------------------------------7--|
|-----------------------------------------------7--|
|-----------------------------------------------5--|
|-----------------------------------------------5--|


                                                                                              Website Design by Samhain138

                                                                                                                 Copyrights

                                                                                         http:// thevalleyofdreams.tripod.com/