Make your own free website on Tripod.com

[All Hallow's EP]

 

Fall Children

Halloween

The Boy Who Destroyed The World

Totalimmortal

 


FALL CHILDREN    Printable Text Version

Tabbed by Jade Puget

 

The intro goes once in a clean tone then repeats the same distorted:
|--------------------------------------------------------------------------|
|--------------------------------------------------------------------------|
|--------------------------------------------------------------------------|
|-------------9--------8----------------------------- 9-------------9------|
|--- 7-----------7--------7-----9----10----9-------10----10-----10----10---|
|-0----0--0--------0--------0-----0-----0----0- 0-------------0------------|

|-----------------------|

|-----------------------|

|-----------------------|

|---------7-----10------|

|-----9------9------9---|

|-0-------------------0-|

 

The second time through it repeats like the first time except for the end:
|----------------------------------------------------------|----first fast part before ---|
|----------------------------------------------------------|----vocals come in------------|
|----------------------------------------------------------|----9-------7----9------7---9-|
|--------9------------9-------------4----------------4-----|----9-------7----9------7---9-|
|----10----10-----10-----10------5-----5-------------5-----|----7-------5----7------5---7-|
|--0-----------0---------------0---------------------7-----|----7-------5----7------5---7-|

Verse:
|--7---5---8------7---5---10-------3----3----------7----5---8-------7----------3---3---5--|
|--9---7--10------7---7---12-------5----3----------9----7---10------9----------5---3---7--|
|--9---7--10------9---7---12-------5----4----------9----7---10------9---10-----5---4---7--|
|--9---7--10------9---7---12-------5----5---4------9----7---10------9---9------5---5---7--|
|--7---5---8------7---5---10-------3----5---5------7----5---8-------7---8------3---5---5--|
|--7---5---8------7---5---10-------3----3---2------7----5---8-------7---7------3---3---5--|

 

|------------------|

|------------------|

|------------------|

|------------------|

|--5---7---9-------|

|--7---7---7-------|

Chorus:
|--7------3-----5-----7-------------7------3------5------6------1---3-------0-----|
|--9------3-----7-----8-------------9------3------7------6------1---3-------0-----|
|--9------4-----7-----9-----12------9------4------7------7------2---4-------0-----|
|--9------5-----7-----9-----X-------9------5------7------8------3---5-------2-----|
|--7------5-----5-----7-----10------7------5------5------8------3---5-------2-----|
|--7------3-----5-----7-----0-------7------3------5------6------1---3-------0-----|

|-----------------------|

|-----------------------|

|-12-----14----16-------|

|-X------X-----X--------|

|-10-----12----14-------|

|-0------0-----0--------|

Breakdown:
|------3 times-------|-----------------first half of breakdown------------------------------|
|--------------------|----------------------------------------------------------------------|
|--------------------|-----9-----10---------------------------------------------------------|
|--2----9---------8--|-----8-----8-----------9-----9-----10----7----4-----------------------|
|--2-------7---------|-----7-----7-----7-----7-----7-----7-----5----5-----5-----4-----------|
|--0-----------0-----|-----0-----0-----0-----0-----8-----8----------------7-----7-----------|

Second half of the breakdown where Dave is singing alone:
|--7-------8------5------7--------------------------7---------------------------------------|
|--8-------8------7------7--------------------------7---------------------------------------|
|--9-------9------7------8--------------------------8-----------fall children!--------------|
|--9------10------7------9--------------------------9---------------------------------------|
|--7------10------5------9-------5--------7---------9---------------------------------------|
|--7------8-------5------7-------7--------7---------7---------------------------------------|

This is the final part with the whoahs:
|--0------3-------5------7------0-------3------5--------------------------------------------|
|--0------3-------7------8------0-------3------7--------------------------------------------|
|--0------4-------7------9------0-------4------7--------------------------------------------|
|--2------5-------7------9------2-------5------7-------2--------------0---------------------|
|--2------5-------5------7------2-------5------5-------2----------7------8------------------|
|--0------3-------5------7------0-------3------5-------0------9-----------------------------|


HALLOWEEN    Printable Text Version

Tabbed by Samhain138

 

*Note: Exact number of strums not shown*

AFI plays this song a little different than The Misfits did. The main difference
is that it's played two frets higher than before and the end of the song is alittle
longer.

Intro:
|------------|
|------------|
|------------|
|-5---5---5--|
|-4---4---4--|
|-2----------|

Verse 1:
|-------------------------------------------------------------------------------|
|-------------------------------------------------------------------------------|
|-4---7---------4---7---------4------4---7---------4---7---------4---5--4-------|
|-4---7---5--7--4---7---5--7--4------4---7---5--7--4---7---5--7--4---4--4--4--5-|
|-2---5---5--7--2---5---5--7--2------2---5---5--7--2---5---5--7--2---2--2--4--5-|
|---------3--5----------3--5-----------------3--5----------3--5------------2--3-|

|--------------------------------------------------|
|--------------------------------------------------|
|-------------------4---5--4-----------------------|
|-4--5--4--5--4--5--4---4--4--4--5--4--5--4--5--4--|
|-4--5--4--5--4--5--2---2--2--4--5--4--5--4--5--4--|
|-2--3--2--3--2--3------------2--3--2--3--2--3--2--|

Chorus 1:
|----------------|
|----------------|
|-4---2---4---2--|
|-4---2---4---2--|
|-2---0---2---0--|
|----------------|

Verse 2:
|-----------------------------|
|-----------------------------|
|-4---7---------4---7---------|
|-4---7---5--7--4---7---5--7--|
|-2---5---5--7--2---5---5--7--|
|---------3--5----------3--5--|

Chorus 2:
|------------------------------------------------------|
|------------------------------------------------------|
|-4---2---4---2------4---2---4---2------4---2---4---2--|
|-4---2---4---2------4---2---4---2------4---2---4---2--|
|-2---0---2---0------2---0---2---0------2---0---2---0--|
|------------------------------------------------------|

Outro:
|---------------------|
|---------------------|
|-4---2---4-----------|
|-4---2---4---5-------|
|-2---0---2---4-------|
|-------------2---2---|


THE BOY WHO DESTROYED THE WORLD    Printable Text Version

Tabbed by Samhain138

 

*Note: Exact amount of strums and palm muting not shown*

Intro:
|----------------------------------------------------------------------------|
|--------------------------------------------------------------8---10--7-----|
|----------------5--7---4---7---6--7-6------------------5--7---X---X---9^11--|
|-9---7--9---9---5--7---5---7---7--7-7---9---7--9---9---5--7---5---7---------|
|-9---7--9---9---3--5---5---5---7--5-7---9---7--9---9---3--5-----------------|
|-7---5--7---7---3--5---3---5---5--5-5---7---5--7---7---3--5-----------------|

|--------------|
|-7-----12-----|
|-9^11--14^16--|
|--------------|
|--------------|
|--------------|

Verse 1:
|----2-3-------------2-3---------------2-3-------------2-3-2-5------2-3--------|
|-3--3-3--8-------3--3-3--8---------3--3-3--8-------3--3-3-3-3---3--3-3--8-----|
|-4--2-2--7---7---4--2-2--7---7-6---4--2-2--7---7---4--2-2-2-2---4--2-2--7---7-|
|-4-------5---7---4-------5---7-7---4-------5---7---4------------4-------5---7-|
|-2-----------5---2-----------5-7---2-----------5---2------------2-----------5-|
|-------------------------------5----------------------------------------------|

|----2-3---------------2-3--------------------------2-------|
|-3--3-3--8---------3--3-3--8---------------------3---3---3-|
|-4--2-2--7---7-6---4--2-2--7---7---9-----------4-------4---|
|-4-------5---7-7---4-------5---7---9---4-----4-------------|
|-2-----------5-7---2-----------5---7---4---2---------------|
|---------------5-------------------7---2-------------------|

Chorus 1:
|-------------------------------------------------------------------------------|
|---------------------------------------------------------------------8--10--7--|
|----------------5--7---4---7---6------------------5--7---4---7---6---X--X---X--|
|-9---7--9---9---5--7---5---7---7---9---7--9---9---5--7---5---7---7---5--7---4--|
|-9---7--9---9---3--5---5---5---7---9---7--9---9---3--5---5---5---7-------------|
|-7---5--7---7---3--5---3---5---5---7---5--7---7---3--5---3---5---5-------------|

|----|
|-5--|
|-X--|
|-2--|
|----|
|----|

Verse 2: Same as Verse 1

Chorus 2:
|------------------------------------------------------------------------------|
|------------------------------------------------------------------------------|
|----------------5--7---4---7---6------------------5--7---4---7---6------------|
|-9---7--9---9---5--7---5---7---7---9---7--9---9---5--7---5---7---7---9---7--9-|
|-9---7--9---9---3--5---5---5---7---9---7--9---9---3--5---5---5---7---9---7--9-|
|-7---5--7---7---3--5---3---5---5---7---5--7---7---3--5---3---5---5---7---5--7-|

|-----------------------------------------------------------------7--|
|------------8--10--10--7---------------------------------10--8---8--|
|-----5--7---0------X---X------------------5--7---4---7---9---9---9--|
|-9---5--7---5------7---4---9---7--9---9---5--7---5---7---7---9------|
|-9---3--5------------------9---7--9---9---3--5---5---5---7---7------|
|-7---3--5------------------7---5--7---7---3--5---3---5-------7------|

Bridge: Mostly palm muted
|------------------------------------------------------------------------------|
|------------------------------------------------------------------------------|
|------------------------------------------------------------------------------|
|------------------------------------------------------------------------------|
|-7---10--9--10--7---7---10--9--10--7---7---7h9--9h10--9--7---7---7h9--9h10-12-|
|-0---0---0--0---0---0---0---0--0---0---0---0----0-----0--0---0---0----0----0--|

|-------------------------------------------------------------------------------|
|-------------------------------------------------------------------------------|
|-------------------------------------------------12-12\11----------------------|
|-----12-----------------------9------------------X--X--X-----------------------|
|-10------7---7h9--9h10-9h10p9-12--7---7h9--9h10--10-10\9---7---9--10--9--7---7-|
|-0---0---0---0----0----0------0---0---0----0---------------0---0--0---0--0---0-|

|----------------------------------------------------------|
|----------------------------------------------------------|
|----------------------------------------------------------|
|-----------------12-----------------------------------14--|
|-9--9h10-12--10------7---9--10--9--7---7---7h9--9h10--12--|
|-0--0----0---0---0---0---0--0---0--0---0---0----0-----0---|

Outro: Repeat 4 times: () means harmonic
|-----------------------------------------|
|----------------------------------(5)----|
|-------------------------------(5)----7--|
|----------------------------(5)-------7--|
|-5h7--8--7---5h7--9--10--(5)----------5--|
|-0----0--0---0----0--0----------------5--|

Ends with this:
|-------------------|
|--------------(5)--|
|-9---------(5)-----|
|-9------(5)--------|
|-7---(5)-----------|
|-7-----------------|


TOTALIMMORTAL    Printable Text Version

Tabbed by Samhain138

 

*Note: Exact strums and palm muting not shown*

Intro:
|------------------------------------------------------|
|------------------------------------------------------|
|----9------7------9------7------9------7---12--14--9--|
|-9--9--5---7---9--9--5---7---9--9--5---7---12--14--9--|
|-7--7--5---5---7--7--5---5---7--7--5---5---10--12--7--|
|-7-----3---5---7-----3---5---7-----3---5---10--12--7--|

Verse 1:
|-------------------------------------------------------------------------|
|-----------10--12--8--10--7--8--10--12--8--10--7--8--10--12--8--10--7--8-|
|-----------9---9---9--9---9--9--9---9---9--9---9--9--9---9---9--9---9--9-|
|-7--8--5-----------------------------------------------------------------|
|-7--7--5-----------------------------------------------------------------|
|-5--6--3-----------------------------------------------------------------|

|------------------------------|
|-10--12--8--10--7--8----------|
|-9---9---9--9---9--9------10--|
|----------------------9---10--|
|----------------------9---8---|
|----------------------7---8---|

Pre-Chorus 1:
|-----------|
|-----------|
|--------9--|
|-9------9--|
|-7------7--|
|-7------7--|

Chorus 1:
|--------------------------------------------------------|
|--------------------------------------------------------|
|-9-------7---9--7--9--12---9-------7---9--11-12--7---9--|
|-9---5---7---X--7--X--12---9---5---7---X--X--X---7---9--|
|-7---5---5---7--5--7--10---7---5---5---7--9--10--5---7--|
|-7---3---5---0--5--0--10---7---3---5---0--0--0---5---7--|

Pre-Verse: Same as Intro

Verse 2: Same as Verse 1

Pre-Chorus 2: Same as Pre-Chorus 1

Chorus 2: Same as Chorus 1

Bridge:
|---------------------------------------------------------------------|
|---------------------------------------------------------------------|
|-9-9---9-9--9-9---9-9---9-9--7-7---9-9---9-9--9-9---9-9---9-9-10--9--|
|-9-9---9-9--9-9---9-9---9-9--7-7---9-9---9-9--9-9---9-9---9-9-9---9--|
|-7-7---7-7--7-7---7-7---7-7--5-5---7-7---7-7--7-7---7-7---7-7-7---7--|
|------------------------------------------------------------------7--|

Chorus 3: Same as Chorus 1


                                                                                              Website Design by Samhain138

                                                                                                                 Copyrights

                                                                                         http:// thevalleyofdreams.tripod.com/