Make your own free website on Tripod.com

[Black Sails EP]

 

Porphyria

Malleus Maleficarum

The Prayer Position

Who Knew?

 


PORPHYRIA    Printable Text Version

Tabbed by Samhain138

 

*Note: Exact amount of strums and palm muting not shown*

Intro:
|-7---7----7----7---7--|
|-7---7----7----7---8--|
|-7---7----7----7---9--|
|-9---9----9----9---9--|
|-9---10---12---9---7--|
|-7---7----7----7---7--|

Verse 1:
|-----5--6--5--3---3--5---3--5---7---3-------5--6--5--3---3--5---3--5-------7--|
|-----5--6--5--3---5--7---3--5---8---3-------5--6--5--3---5--7---3--5-------8--|
|-----6--7--6--4---5--7---4--6---9---4-------6--7--6--4---5--7---4--6-------9--|
|-2---7--8--7--5---5--7---5--7---9---5---2---7--8--7--5---5--7---5--7---2---9--|
|-2---7--8--7--5---3--5---5--7---7---5---2---7--8--7--5---3--5---5--7---2---7--|
|-0---5--6--5--3---3--5---3--5---7---3---0---5--6--5--3---3--5---3--5---0---7--|

Chorus 1:
|-3---5---3-------3---5-------3---5---3-------3---5-------7--|
|-5---7---3-------5---7-------5---7---3-------5---7-------8--|
|-5---7---4-------5---7-------5---7---4-------5---7-------9--|
|-5---7---5---2---5---7---2---5---7---5---2---5---7---2---9--|
|-3---5---5---2---3---5---2---3---5---5---2---3---5---2---7--|
|-3---5---3---0---3---5---0---3---5---3---0---3---5---0---7--|

Verse 2: Same as Verse 1

Chorus 2: Same as Chorus 1

Bridge:
|-7----------6--5---3---5----------6--5---3--5----------6--5---3---5---------6-|
|-8----------6--5---3---5----------6--5---3--5----------6--5---3---5---------6-|
|-9----------7--6---4---6----------7--6---4--6----------7--6---4---6---------7-|
|-9------2---8--7---5---7--2---2---8--7---5--7--2---2---8--7---5---7--2---2--8-|
|-7------2---8--7---5---7--2---2---8--7---5--7--2---2---8--7---5---7--2---2--8-|
|-7------0---6--5---3---5--0---0---6--5---3--5--0---0---6--5---3---5--0---0--6-|

|-5---3--5------3--5--7---7----7----7---7---7---7---|
|-5---3--5------3--5--7---7----7----7---7---7---7---|
|-6---4--6------4--6--7---7----7----7---8---9---11--|
|-7---5--7--2---5--7--9---9----9----9---9---7---7---|
|-7---5--7--2---5--7--9---10---12---9---9---9---9---|
|-5---3--5--0---3--5--7---7----7----7---7---7---7---|

Outro:
|-----5--3---3--5----------5--3---3--5----------5--3---3--5----------5--3---3--|
|-----7--5---3--5----------7--5---3--7----------7--5---3--5----------7--5---3--|
|-----7--5---4--6----------7--5---4--7----------7--5---4--6----------7--5---4--|
|-2---7--5---5--7--2---2---7--5---5--7--2---2---7--5---5--7--2---2---7--5---5--|
|-2---5--3---5--7--2---2---5--3---5--5--2---2---5--3---5--7--2---2---5--3---5--|
|-0---5--3---3--5--0---0---5--3---3--5--0---0---5--3---3--5--0---0---5--3---3--|

|-5------7--|
|-7------8--|
|-7------9--|
|-7--2---9--|
|-5--2---7--|
|-5--0---7--|


MALLEUS MALEFICARUM    Printable Text Version

Tabbed by Samhain138

 

*Note: Exact amount of strums and palm muting not shown*

*I wasn't sure if he's using octave chords here or just open
E and the root note. I've shown octave chords here but
either way is fine.*

Intro: Play twice
|----------------------------------7--|
|----------------------------------8--|
|-7--9---12--9------7--9---12--9---9--|
|-X--X---X---X------X--X---X---X---9--|
|-5--7---10--7------5--7---10--7------|
|-0--0---0---0------0--0---0---0------|

Verse 1:
|------------3---5--2------------------------3---5--7--|
|------------3---7--4------------------------3---7--7--|
|------------4---7--4------------------------4---7--8--|
|-2-2-2------5---7--4---2-2-2------2-2-2-----5---7--9--|
|-2-2-2------5---5--2---2-2-2------2-2-2-----5---5--9--|
|-0-0-0------3---5--2---0-0-0------0-0-0-----3---5--7--|

Transition 1:
|----------------------------|
|----------------------------|
|-9------12------14------16--|
|-X------X-------X-------X---|
|-7------10------12------14--|
|-0------0-------0-------0---|

Chorus 1:
|-3---5--------------7------3---5---7------3---5---5---7----------7--|
|-3---7--------------8------3---7---8------3---7---5---8----------7--|
|-4---7---7--9---12--9------4---7---9------4---7---6---9----------8--|
|-5---7---7--9---12--9------5---7---9------5---7---7---9----------9--|
|-5---5---5--7---10--7------5---5---7------5---5---7---7------7---9--|
|-3---5---5--7---10--7------3---5---7------3---5---5---7------8---7--|

Verse 2: Same as first but palm mute this note clean between parts
|----|
|----|
|----|
|-2--|
|----|
|----|

Transition 2: Same as Transition 1

Chorus 2: Same as Chorus 1

Bridge 1:
|-------------------------------5--5-----|
|-------------------------------7--5-----|
|-7--9---12--9---7--9---12--9---7--6-----|
|-X--X---X---X---X--X---X---X---7--7--2--|
|-5--7---10--7---5--7---10--7---5--7--2--|
|-0--0---0---0---0--0---0---0---5--5--0--|

Interlude:
|--------------7-------------------------------------|
|--------------8-------------------------------------|
|--------------9-------------------9---12---14---16--|
|--------------9-------------------X---X----X----X---|
|-7------------7---7---8---7---8---7---10---12---14--|
|-7------------7---0---0---0---0---0---0----0----0---|

Chorus 3: Same as Chorus 1

Bridge 2: Same as Bridge 1

Outro: () means string harmonics
|---------------------------------|
|---------(12)---------------(5)--|
|---------(12)---------------(5)--|
|-------------------(5)-----------|
|-/7----------------(5)-----------|
|-0-------------------------------|


THE PRAYER POSITION    Printable Text Version

Tabbed by Samhain138

 

*Note: Exact amount of strums and palm muting not shown*

In this song it was hard to determine if Jade's playing the low E (0-2-2)
or the high E (7-7-9-9) so all the chords are pretty much interchangeable.

Intro:
|---0-----0---0-----0-----0---0-----0-----0---0-----0------|
|-3/5---3/5---6---3/5---3/5---6---3/5---3/5---6---3/5------|
|-------------------------------------------------------9--|
|-------------------------------------------------------9--|
|-------------------------------------------------------7--|
|-------------------------------------------------------7--|

Verse 1:
|-------------------------------------------------------------------------------|
|-------------------------------------------------------------------------------|
|-------------------------------------------------------------------------------|
|-2---2-----2---2-----2---2-----2------5---5---5-7---2---2-----2---2----2---2---|
|-2---2-----2---2-----2---2-----2------5---3---5-7---2---2-----2---2----2---2---|
|-0---0-----0---0-----0---0-----0------3---3---3-5---0---0-----0---0----0---0---|

|-----------------------|
|-----------------------|
|---------7---9------9--|
|-2---5---7---9------9--|
|-2---5---5---7------7--|
|-0---3---5---7------7--|

Chorus 1:
|---------------------------------------------------------------------|
|---------------------------------------------------------------------|
|-5-------7---9---5-------7------5-------7---9---5--------------------|
|-5---5---7---9---5---5---7------5---5---7---9---5---5---7------7--8--|
|-3---5---5---7---3---5---5------3---5---5---7---3---5---7------7--8--|
|-3---3---5---7---3---3---5------3---3---5---7---3---3---5------5--6--|

Verse 2:
|-------------------------------------------------------------------------------------|
|-------------------------------------------------------------------------------------|
|-------------------------------------------------------------------------------------|
|-2---2-----2---2-----2---2-----2------5---5---5-7---2---2-----2---2----------2---2---|
|-2---2-----2---2-----2---2-----2------5---3---5-7---2---2-----2---2-----(5)--2---2---|
|-0---0-----0---0-----0---0-----0------3---3---3-5---0---0-----0---0-(5)------0---0---|

|-----------------------|
|-----------------------|
|---------7---9------9--|
|-2---5---7---9------9--|
|-2---5---5---7------7--|
|-0---3---5---7------7--|

Chorus 2: Same as Chorus 1 except don't play the last 2 chords

Bridge: Clean guitar
|---------------------------------------------------------------------------|
|---------------------------------------------------------------------------|
|-------------------------------------------0-----------------------3-------|
|-----0-------------2---------0-----------------------0---------------------|
|---3---3---3-----2---------3---3---3-----2---------3---3---3-----2---------|
|-0-------3---3-0---------0-------3---3-0---------0-------3---3-0---------0-|

|--------------------|
|--------------------|
|-----------------4--|
|---0----------------|
|-3---3---3-----2----|
|-------3---3-0------|

Chorus 3: Same as Chorus 1

Outro:
|--------------------------------------------------------------------------|
|--------------------------------------------------------------------------|
|--------------------------------------------------------------------------|
|-2---5--2---2---5--2---2---5--2-----8--2---2---5--2---2---5--2---2---5--2-|
|-2---5--2---2---5--2---2---5--2---5----2---2---5--2---2---5--2---2---5--2-|
|-0---3--0---0---3--0---0---3--0--------0---0---3--0---0---3--0---0---3--0-|

|----------|
|----------|
|-7-----9--|
|-7-----9--|
|-5-----7--|
|-5-----7--|


WHO KNEW?    Printable Text Version

Tabbed by Samhain138

 

*Note: Exact amount of strums and palm muting not shown*

Intro:
|----------------------------------------------------------------------------------|
|----------------------------------------------------------------------------------|
|-----------------------7-----------------------------------7----7-----------------|
|-9-----9---5--5-5---7--7-7---9------9---9-----9---5--5-5---7--7-7---9-------------|
|-9--9--9---5--5-5---7--5-7---9--9---9---9--9--9---5--5-5---5--7-5---9-------------|
|-7--10-7---3--2-3---5--5-5---7--10--7---7--10-7---3--2-3---5--5-5---7--pickslide\-|

Verse 1:
|---------------7--7------7--7------2--3-2------7--7------7--7-------------|
|---------------8----8----7----7----3--3-3------9----8----7----7-----------|
|---------------9------9--8------8--2-----------9------9--8------8---------|
|-2------7------9---------9---------0-------7---9---------9---------7---4--|
|-2------7------7---------9-----------------7---7---------9---------7---4--|
|-0------5------7---------7-----------------5---7---------7---------5---2--|

Chorus 1:
|------------------------------------------------------------------------|
|------------------------------------------------------------------------|
|-------7---------7-----------7-------------7---------7-----------7------|
|-9---5-7---9---5-7---9---5---7---7---9---5-7---9---5-7---9---5---7---7--|
|-9---5-5---9---5-5---9---5---5---7---9---5-5---9---5-5---9---5---5---7--|
|-7---3-5---7---3-5---7---3---5---5---7---3-5---7---3-5---7---3---5---5--|

Verse 2:
|-----------------------------7--7------7--7------2--3-2------7--7------7--7-----|
|-----------------------------8----8----7----7----3--3-3------8----8----7----7---|
|-----------------------------9------9--8------8--2-----------9------9--8------8-|
|---------7---7-----------7---9---------9---------0-------7---9---------9--------|
|-7---5---5---7---7---5---7---7---------9-----------------7---7---------9--------|
|-0---7---5---5---0---7---5---7---------7-----------------5---7---------7--------|

|--------|
|--------|
|--------|
|-7---4--|
|-7---4--|
|-5---2--|

Chorus 2: Same as Chorus 1

Breakdown:
|--------------------|
|--------------------|
|-------------7-7----|
|-9---7-7-9---7-7-9--|
|-9---7-7-9---5-5-9--|
|-7---5-5-7---5-5-7--|

Bridge:
|-------3-2-0----------------------3-2-0-------7---7---2-------7---7-----|
|-7--3--3-3-3--7--3--8-10-7--7--3--3-3-3-------8---7---3-------8---7-----|
|-4--4---------4--4--7-7--7--4--4--------------9---8---2-------9---8-----|
|-----------------------------------------7----9---9---0---7---9---9---7-|
|-----------------------------------------7----7---9-------7---7---9---7-|
|-----------------------------------------5----7---7-------5---7---7---5-|

|-------------|
|-------------|
|-------------|
|-4---4-4-4---|
|-4---4-4-4---|
|-2---2-2-2---|

Chorus 3: Same as Chorus 1

End:
|------------|
|------------|
|------------|
|-9---7-7-9--|
|-9---7-7-9--|
|-7---5-5-7--|


                                                                       Website Design by Samhain138

                                                                                                                 Copyrights

                                                                                         http:// thevalleyofdreams.tripod.com/