Make your own free website on Tripod.com

[Black Sails In The Sunset]

 

Strength Through Wounding

Porphyria Cutanea Tarda

Exsanguination

Malleus Maleficarum

Narrative Of Soul Against Soul

Clove Smoke Catharsis

The Prayer Position

No Poetic Device

The Last Kiss

Weathered Tome

At A Glance

God Called In Sick Today

Midnight Sun

Lower It

 


STRENGTH THROUGH WOUNDING    Printable Text Version
Tabbed by Samhain138


*Note: Exact amount of strums and palm muting not shown*


|--------5------6------7------7------5------3------7-------------------|
|--------6------6------8------8------5------3------8----------(7)------|
|-9------7------7------9------9------7------4------9------(7)----------|
|-9------7------8------9-------------7------5------9--------------(7)--|
|-7------5------8------7-------------5------5------7-------------------|
|-7------5------6------7-------------5------3------7-------------------|

|-------------------------------------------7------7--|
|-------------------------------------------8------8--|
|-12---12-/-14------14-\-13------9------10--9------9--|
|-X----X--/-X-------X--\-X-------X------X---9------9--|
|-10---10-/-12------12-\-11------7------8---7------7--|
|-0----0--/-0-------0--\-0-------0------0---7------7--|

|-6---3---7---------------7---7--7-7--|
|-6---3---8---------------8---8--8-8--|
|-7---4---9------12---7---9---9--9-9--|
|-8---5---9------X----X---9---9--9-9--|
|-8---5---7------10---5---7---7--7-7--|
|-6---3---7------0----0---7---7--7-7--|


PORPHYRIA CUTANEA TARDA    Printable Text Version

Tabbed by Samhain138

 

*Note: Exact amount of strums and palm muting not shown*

Intro:
|-7---7----7----7---7--|
|-7---7----7----7---8--|
|-7---7----7----7---9--|
|-9---9----9----9---9--|
|-9---10---12---9---7--|
|-7---7----7----7---7--|

Verse 1:
|-----5--6--5--3---3--5---3--5---7---3-------5--6--5--3---3--5---3--5-------7--|
|-----5--6--5--3---5--7---3--5---8---3-------5--6--5--3---5--7---3--5-------8--|
|-----6--7--6--4---5--7---4--6---9---4-------6--7--6--4---5--7---4--6-------9--|
|-2---7--8--7--5---5--7---5--7---9---5---2---7--8--7--5---5--7---5--7---2---9--|
|-2---7--8--7--5---3--5---5--7---7---5---2---7--8--7--5---3--5---5--7---2---7--|
|-0---5--6--5--3---3--5---3--5---7---3---0---5--6--5--3---3--5---3--5---0---7--|

Chorus 1:
|-3---5---3-------3---5-------3---5---3-------3---5-------7--|
|-5---7---3-------5---7-------5---7---3-------5---7-------8--|
|-5---7---4-------5---7-------5---7---4-------5---7-------9--|
|-5---7---5---2---5---7---2---5---7---5---2---5---7---2---9--|
|-3---5---5---2---3---5---2---3---5---5---2---3---5---2---7--|
|-3---5---3---0---3---5---0---3---5---3---0---3---5---0---7--|

Verse 2: Same as Verse 1

Chorus 2: Same as Chorus 1

Bridge:
|-7----------6--5---3---5----------6--5---3--5----------6--5---3---5---------6-|
|-8----------6--5---3---5----------6--5---3--5----------6--5---3---5---------6-|
|-9----------7--6---4---6----------7--6---4--6----------7--6---4---6---------7-|
|-9------2---8--7---5---7--2---2---8--7---5--7--2---2---8--7---5---7--2---2--8-|
|-7------2---8--7---5---7--2---2---8--7---5--7--2---2---8--7---5---7--2---2--8-|
|-7------0---6--5---3---5--0---0---6--5---3--5--0---0---6--5---3---5--0---0--6-|

|-5---3--5------3--5--7---7----7----7---7---7---7---|
|-5---3--5------3--5--7---7----7----7---7---7---7---|
|-6---4--6------4--6--7---7----7----7---8---9---11--|
|-7---5--7--2---5--7--9---9----9----9---9---7---7---|
|-7---5--7--2---5--7--9---10---12---9---9---9---9---|
|-5---3--5--0---3--5--7---7----7----7---7---7---7---|

Outro:
|-----5--3---3--5----------5--3---3--5----------5--3---3--5----------5--3---3--|
|-----7--5---3--5----------7--5---3--7----------7--5---3--5----------7--5---3--|
|-----7--5---4--6----------7--5---4--7----------7--5---4--6----------7--5---4--|
|-2---7--5---5--7--2---2---7--5---5--7--2---2---7--5---5--7--2---2---7--5---5--|
|-2---5--3---5--7--2---2---5--3---5--5--2---2---5--3---5--7--2---2---5--3---5--|
|-0---5--3---3--5--0---0---5--3---3--5--0---0---5--3---3--5--0---0---5--3---3--|

|-5------7--|
|-7------8--|
|-7------9--|
|-7--2---9--|
|-5--2---7--|
|-5--0---7--|


EXSANGUINATION    Printable Text Version

Tabbed by Samhain138

 

*Note: Exact amount of strums and palm muting not shown*

Intro:
|-0----------------0---3--5--7---10---10-----------------------7--|
|-0----------------0---3--5--8---12---10-----------------------8--|
|-0---7---12--11---0---4--6--9---12---11---11\--------------8--9--|
|-2---X---X---X----2---5--7--9---12---12---X-----9--10--12--8--9--|
|-2---5---10--9----2---5--7--7---10---12---9-\---9--10--12--6--7--|
|-0----------------0---3--5--7---10---10---------7--8---10--6--7--|

Verse 1:
|-7---10---8----10---7---10---8----10---7---10---8----10---7---10---8----10--10-|
|-8---10---8----12---8---10---8----12---8---10---8----12---8---10---8----12--10-|
|-9---11---9----12---9---11---9----12---9---11---9----12---9---11---9----12--11-|
|-9---12---10---12---9---12---10---12---9---12---10---12---9---12---10---12--12-|
|-7---12---10---10---7---12---10---10---7---12---10---10---7---12---10---10--12-|
|-7---10---8----10---7---10---8----10---7---10---8----10---7---10---8----10--10-|

|-7---7--|
|-7---8--|
|-8---9--|
|-9---9--|
|-9---7--|
|-7---7--|

Chorus 1:
|-5--7--|
|-7--8--|
|-7--9--|
|-7--9--|
|-5--7--|
|-5--7--|

Verse 2:
|-7---10---8----10---7---10---8----10--10---7---7--|
|-8---10---8----12---8---10---8----12--10---7---8--|
|-9---11---9----12---9---11---9----12--11---8---9--|
|-9---12---10---12---9---12---10---12--12---9---9--|
|-7---12---10---10---7---12---10---10--12---9---7--|
|-7---10---8----10---7---10---8----10--10---7---7--|

Chorus 2: Same as Chorus 1

Bridge:
|-------------------------------------------------------------------------------|
|-8---10-------------8---10-------10---13---8---10--------10---8---10-----------|
|-9---11---12---14---9---11---12--11---14---9---11---12---11---9---11---12---7--|
|-X---X----X----X----X---X----X---X----X----X---X----X----X----X---X----X----X--|
|-7---9----10---12---7---9----10--9----12---7---9----10---9----7---9----10---5--|
|-------------------------------------------------------------------------------|

|-7---9--10---10---5-7---9--10---10---5-7---9--10---10---5-7---9--10---10---5--|
|-8---11-12---10---5-8---11-12---10---5-8---11-12---10---5-8---11-12---10---5--|
|-9---11-12---11---6-9---11-12---11---6-9---11-12---11---6-9---11-12---11---6--|
|-9---11-12---12---7-9---11-12---12---7-9---11-12---12---7-9---11-12---12---7--|
|-7---9--10---12---7-7---9--10---12---7-7---9--10---12---7-7---9--10---12---7--|
|-7---9--10---10---5-7---9--10---10---5-7---9--10---10---5-7---9--10---10---5--|

|---------------7---7--|
|---------------8---7--|
|------------8--9---8--|
|-9--10--12--8--9---9--|
|-9--10--12--6--7---9--|
|-7--8---10--6--7---7--|

Chorus 3:
|-7---8----3---5---7---8----3---5---7--|
|-8---8----3---7---8---8----3---7---8--|
|-9---9----4---7---9---9----4---7---9--|
|-9---10---5---7---9---10---5---7---9--|
|-7---10---5---5---7---10---5---5---7--|
|-7---8----3---5---7---8----3---5---7--|


MALLEUS MALEFICARUM    Printable Text Version

Tabbed by Samhain138

 

*Note: Exact amount of strums and palm muting not shown*

*I wasn't sure if he's using octave chords here or just open
E and the root note. I've shown octave chords here but
either way is fine.*

Intro: Play twice
|----------------------------------7--|
|----------------------------------8--|
|-7--9---12--9------7--9---12--9---9--|
|-X--X---X---X------X--X---X---X---9--|
|-5--7---10--7------5--7---10--7------|
|-0--0---0---0------0--0---0---0------|

Verse 1:
|------------3---5--2------------------------3---5--7--|
|------------3---7--4------------------------3---7--7--|
|------------4---7--4------------------------4---7--8--|
|-2-2-2------5---7--4---2-2-2------2-2-2-----5---7--9--|
|-2-2-2------5---5--2---2-2-2------2-2-2-----5---5--9--|
|-0-0-0------3---5--2---0-0-0------0-0-0-----3---5--7--|

Transition 1:
|----------------------------|
|----------------------------|
|-9------12------14------16--|
|-X------X-------X-------X---|
|-7------10------12------14--|
|-0------0-------0-------0---|

Chorus 1:
|-3---5--------------7------3---5---7------3---5---5---7----------7--|
|-3---7--------------8------3---7---8------3---7---5---8----------7--|
|-4---7---7--9---12--9------4---7---9------4---7---6---9----------8--|
|-5---7---7--9---12--9------5---7---9------5---7---7---9----------9--|
|-5---5---5--7---10--7------5---5---7------5---5---7---7------7---9--|
|-3---5---5--7---10--7------3---5---7------3---5---5---7------8---7--|

Verse 2: Same as first but palm mute this note clean between parts
|----|
|----|
|----|
|-2--|
|----|
|----|

Transition 2: Same as Transition 1

Chorus 2: Same as Chorus 1

Bridge 1:
|-------------------------------5--5-----|
|-------------------------------7--5-----|
|-7--9---12--9---7--9---12--9---7--6-----|
|-X--X---X---X---X--X---X---X---7--7--2--|
|-5--7---10--7---5--7---10--7---5--7--2--|
|-0--0---0---0---0--0---0---0---5--5--0--|

Interlude:
|--------------7-------------------------------------|
|--------------8-------------------------------------|
|--------------9-------------------9---12---14---16--|
|--------------9-------------------X---X----X----X---|
|-7------------7---7---8---7---8---7---10---12---14--|
|-7------------7---0---0---0---0---0---0----0----0---|

Chorus 3: Same as Chorus 1

Bridge 2: Same as Bridge 1

Outro: () means string harmonics
|---------------------------------|
|---------(12)---------------(5)--|
|---------(12)---------------(5)--|
|-------------------(5)-----------|
|-/7----------------(5)-----------|
|-0-------------------------------|


NARRATIVE OF SOUL AGAINST SOUL    Printable Text Version

Tabbed by Samhain138

 

*Note: Exact amount of strums and palm muting not shown*

Intro:
|-7------7---3---2---3-2--------------7------3---2---3-2--------------7\--|
|-8---10-8---3---3---3-3--------------8------3---3---3-3--------------8\--|
|-9---9--9---4---2---2-2---5------7---9------4---2---2-2---5------7---9\--|
|-9---7--9---5---0---0-0---5---5--7---9---2--5---0---0-0---5---5--7---9\--|
|-7---7--7---5-------------3---5--5---7---2--5-------------3---5--5---7\--|
|-7---7--7---3-------------3---3--5---7---0--3-------------3---3--5---7\--|

Verse 1 Part 1:
|---------------------------------------------------|
|---------------------------------------------------|
|-------------------7-------------------------7-----|
|-7/9---5--7--7/9---7--7---7/9---5--7---7/9---7--7--|
|-7/9---5--7--7/9---5--7---7/9---5--7---7/9---5--7--|
|-5/7---3--5--5/7---5--5---5/7---3--5---5/7---5--5--|

Verse 1 Part 2: Fast palm muted notes between chords
|--------------------------------------------|
|--------------------------------------------|
|----------------7---------------------7-----|
|-9---5--7---9---7--7---9---5--7---9---7--7--|
|-9---5--7---9---5--7---9---5--7---9---5--7--|
|-7---3--5---7---5--5---7---3--5---7---5--5--|

Chorus 1:
|-7---3--------------7---3--------------7\--|
|-8---3--------------8---3--------------8\--|
|-9---4---7---5--7---9---4---7---5--7---9\--|
|-9---5---7---5--7---9---5---7---5--7---9\--|
|-7---5---5---3--5---7---5---5---3--5---7\--|
|-7---3---5---3--5---7---3---5---3--5---7\--|

Verse 2: Same as Verse 1 Part 1

Chorus 2:
|-7---3--------------7---3--------------7------3--------------7---3--------------7\-|
|-8---3--------------8---3--------------8------3--------------8---3--------------8\-|
|-9---4---7---5--7---9---4---7---5--7---9------4---7---5--7---9---4---7---5--7---9\-|
|-9---5---7---5--7---9---5---7---5--7---9--2---5---7---5--7---9---5---7---5--7---9\-|
|-7---5---5---3--5---7---5---5---3--5---7--2---5---5---3--5---7---5---5---3--5---7\-|
|-7---3---5---3--5---7---3---5---3--5---7--0---3---5---3--5---7---3---5---3--5---7\-|

Bridge: Lightly palm muted
|-7---0--0--0--0--0--0--7--8--7-----------0--0--0--0--0--0--7--8--7------------|
|-8---5--7--8--5--7--8--8--8--8--7--8--7--5--7--8--5--7--8--8--8--8--7--10--8--|
|-9---------------------7--7--7--7--7--7--------------------7--7--7--7--7---7--|
|-9----------------------------------------------------------------------------|
|-7----------------------------------------------------------------------------|
|-7----------------------------------------------------------------------------|

|-0--0--0--0--0--0--7--8--7--------7--|
|-5--7--8--5--7--8--8--8--8--7--8--7--|
|-------------------7--7--7--7--7-----|
|-------------------------------------|
|-------------------------------------|
|-------------------------------------|

Chorus 3: Same as Chorus 2

End Part: Lightly palm muted until end
|-0--0--0--0--0--0--0--0--0--0---|
|-5--7--8--5--7--8--5--7--8--12--|
|--------------------------------|
|--------------------------------|
|--------------------------------|
|--------------------------------|


CLOVE SMOKE CATHARSIS    Printable Text Version

Tabbed By Jade Puget

 

Intro:                                     Repeat with this chord at the end: 
|-----------------------------------------|--------------------------------------------|
|-----------------------------------------|--------------------------------------------|
|-----------------------------------------|--------------------------------------------|
|--7--7-7--7--7--7-7--7--7-7-7--7--7-7-7--|--------------------7-7--7-7--7-7-----------|
|--5--5-5--8--7--7-7--7--7-7-7--8--8-8-8--|--------------------5-5--5-5--5-5-----------|
|--5--5-5--5--5--5-5--6--6-6-6--6--6-6-6--|--------------------9-9--9-9--9-9-----------|

verse 1:
|--5-----5-------5-----5----------------------------------------------------|
|--6-------6-----5--------5-------------------------------------------------|
|--7--7-----7----7------------7--------------------------------7------------|
|--7--7----------7--7-----------7--7-----7---------7--7----------7----------|
|--5-------------------------------5---------5-----5--5------------5--------|
|--5-------------------------------6--6---------6--5--5--5-----------5------|

verse 1 (distorted guitar):
|--5--5-5-5--5--5-5--5-5---------------------------------------------|
|--6--6-6-6--5--5-5--5-5---------------------------------------------|
|--7--7-7-7--7--7-7--7-7--7--7-7-7-----------------------------------|
|--7--7-7-7--7--7-7--7-7--7--7-7-7--7--7-7-7--7-7--------------------|
|--5--5-5-5--5--5-5--5-5--5--5-5-5--5--5-5-5--5-5--------------------|
|--5--5-5-5--5--5-5--5-5--6--6-6-6--8--8-8-8--9-9--------------------|

chorus: (I'm not including the exact amount of strums here, just the chords)
on the second chord (A major) of the second measure of the chorus,
there is harmonics on the E string
|--5---5---6---8----10----------5---5---6---8----10--------------------|
|--6---5---6---8----10----------6---5---6---10---12--------------------|
|--7---6---7---9----10--9-------7---6---7---10---12----13--------------|
|--7---7---8---10---11----------7---7---8---10---12--------------------|
|--5---7---8---10---11--7-------5---7---8---8----10----11--------------|
|--5---5---6---8----9---x-------5---5---6---8----10--------------------|

verse 2 and chorus 2 are basically the same as the first except there is less 
individually picked strings and the chorus is doubled with and extra octave chord at the end: 
G --16--
D -------
A -14--

Break: 
At the end:
|--7---9---10---8---8-----------------9-------------------|
|--7---9---10--10---8-----------------9-------------------|
|--7---10--11--10---9----------------10-------------------|
|--9---11--12--10---10---------------11-------------------|
|--9---11--12---8---10---------------11-------------------|
|--7---9---10---8---8-----------------9-------------------|

Breakdown: (once again, the exact strums aren't represented)

At the end:
|---------------------------------------------------------|
|---------------------------------------------------------|
|--------------------------------10--9---------7----------|
|--7--7--7--7--7--7--10--11-------------------------------|
|--5--8--7--7--8--7--7----7------7---7---------5----------|
|--5--5--5--6--6--8--8----9------9---9--------------------|

repeat chorus and then finish out song on this octave chord: 
G ---7---
D -------
A ---5---


THE PRAYER POSITION    Printable Text Version

Tabbed by Samhain138

 

*Note: Exact amount of strums and palm muting not shown*

In this song it was hard to determine if Jade's playing the low E (0-2-2)
or the high E (7-7-9-9) so all the chords are pretty much interchangeable.

Intro:
|---0-----0---0-----0-----0---0-----0-----0---0-----0------|
|-3/5---3/5---6---3/5---3/5---6---3/5---3/5---6---3/5------|
|-------------------------------------------------------9--|
|-------------------------------------------------------9--|
|-------------------------------------------------------7--|
|-------------------------------------------------------7--|

Verse 1:
|-------------------------------------------------------------------------------|
|-------------------------------------------------------------------------------|
|-------------------------------------------------------------------------------|
|-2---2-----2---2-----2---2-----2------5---5---5-7---2---2-----2---2----2---2---|
|-2---2-----2---2-----2---2-----2------5---3---5-7---2---2-----2---2----2---2---|
|-0---0-----0---0-----0---0-----0------3---3---3-5---0---0-----0---0----0---0---|

|-----------------------|
|-----------------------|
|---------7---9------9--|
|-2---5---7---9------9--|
|-2---5---5---7------7--|
|-0---3---5---7------7--|

Chorus 1:
|---------------------------------------------------------------------|
|---------------------------------------------------------------------|
|-5-------7---9---5-------7------5-------7---9---5--------------------|
|-5---5---7---9---5---5---7------5---5---7---9---5---5---7------7--8--|
|-3---5---5---7---3---5---5------3---5---5---7---3---5---7------7--8--|
|-3---3---5---7---3---3---5------3---3---5---7---3---3---5------5--6--|

Verse 2:
|-------------------------------------------------------------------------------------|
|-------------------------------------------------------------------------------------|
|-------------------------------------------------------------------------------------|
|-2---2-----2---2-----2---2-----2------5---5---5-7---2---2-----2---2----------2---2---|
|-2---2-----2---2-----2---2-----2------5---3---5-7---2---2-----2---2-----(5)--2---2---|
|-0---0-----0---0-----0---0-----0------3---3---3-5---0---0-----0---0-(5)------0---0---|

|-----------------------|
|-----------------------|
|---------7---9------9--|
|-2---5---7---9------9--|
|-2---5---5---7------7--|
|-0---3---5---7------7--|

Chorus 2: Same as Chorus 1 except don't play the last 2 chords

Bridge: Clean guitar
|---------------------------------------------------------------------------|
|---------------------------------------------------------------------------|
|-------------------------------------------0-----------------------3-------|
|-----0-------------2---------0-----------------------0---------------------|
|---3---3---3-----2---------3---3---3-----2---------3---3---3-----2---------|
|-0-------3---3-0---------0-------3---3-0---------0-------3---3-0---------0-|

|--------------------|
|--------------------|
|-----------------4--|
|---0----------------|
|-3---3---3-----2----|
|-------3---3-0------|

Chorus 3: Same as Chorus 1

Outro:
|--------------------------------------------------------------------------|
|--------------------------------------------------------------------------|
|--------------------------------------------------------------------------|
|-2---5--2---2---5--2---2---5--2-----8--2---2---5--2---2---5--2---2---5--2-|
|-2---5--2---2---5--2---2---5--2---5----2---2---5--2---2---5--2---2---5--2-|
|-0---3--0---0---3--0---0---3--0--------0---0---3--0---0---3--0---0---3--0-|

|----------|
|----------|
|-7-----9--|
|-7-----9--|
|-5-----7--|
|-5-----7--|


NO POETIC DEVICE    Printable Text Version

Tabbed by Samhain138

 

*Note: Exact amount of strums and palm muting not shown*

Intro:
|------------------------------------------------------|
|------------------------------------------------------|
|------------------------------------------------------|
|-9---<-light palm mute--9---10-9---7-9---10--9--7--5--|
|-X----------------------9---10-9---7-9---10--9--7--5--|
|-7---<-heavy palm mute--7---8--7---5-7---8---7--5--3--|

Chorus 1:
|----------------------------------------------------------------|
|----------------------------------------------------------------|
|---------7---------------7---------------7---------------7------|
|-2---5---7---7---2---5---7---7---2---5---7---7---2---5---7---7--|
|-2---5---5---7---2---5---5---7---2---5---5---7---2---5---5---7--|
|-0---3---5---5---0---3---5---5---0---3---5---5---0---3---5---5--|

Verse 1: Palm muted
|----------------------------------------------------------------------------|
|----------------------------------------------------------------------------|
|----------------------------------------------------------------------------|
|-2---4--5---4-2---4--5---4-2---4--5---4-4---3---2---4--5---4-2---4--5---4-2-|
|-2---4--5---4-2---4--5---4-2---4--5---4-4---3---2---4--5---4-2---4--5---4-2-|
|-0---2--3---2-0---2--3---2-0---2--3---2-2---1---0---2--3---2-0---2--3---2-0-|

|---------------------------------------------------------|
|---------------------------------------------------------|
|---------------------------------------------------------|
|--4--5---4--5--7--4--5--7--9---10-9---7-9---10--9--7--5--|
|--4--5---4--5--7--4--5--7--9---10-9---7-9---10--9--7--5--|
|--2--3---2--3--5--2--3--5--7---8--7---5-7---8---7--5--3--|

Chorus 2: Same as Chorus 1

Verse 2: Same as Verse 1 but not palm muted

Bridge: () means string harmonic
|--------(12)--------(7)-------(5)--------------------------------------|
|-------------(12)-------(7)-------(5)----------------------------------|
|--------------------------------------------------------------------7--|
|-2--------------------------------------2--2---2--2---2--2---2--2---7--|
|-2--------------------------------------2--2---2--2---2--2---2--2---5--|
|-0--------------------------------------0--0---0--0---0--0---0--0---5--|

Chorus 3: Same as Chorus 1

Outro: Play 6 times
|----------------------|
|----------------------|
|-9---7---3---5-4-5-4--|
|-X---X---X---X-X-X-X--|
|-7---5---1---3-2-3-2--|
|----------------------|


THE LAST KISS    Printable Text Version

Tabbed by Samhain138

 

*Note: Exact amount of strums and palm muting not shown*

Intro:
|--------------------------------------------------------------------------------|
|--------------------------------------------------------------------------------|
|-10--9--10--12--5----10--9--10--12--5----10--9--10--12--5----10--9---10--9---10-|
|-0---0--0---0---0----0---0--0---0---0----0---0--0---0---0----10--10--10--10--10-|
|-------------------------------------------------------------8---10--8---10--8--|
|-------------------------------------------------------------8---8---8---8---8--|

Verse 1 Part 1
|-------------------------------------------------------------------------------|
|-------------------------------------------------------------------------------|
|-10---7--9----10---12---10------10---7--9---------------------10---7--9----10--|
|-12---8--10---10---12---12------12---8--10--------------------12---8--10---10--|
|-12---8--10---8----10---12-12---12---8--10---10---9---10-9----12---8--10---8---|
|-10---6--8----8----10---10-13---10---6--8----10---10--10-10---10---6--8----8---|

|--------------------------------------------|
|--------------------------------------------|
|-12---10------10---7--9----7---9----7---9---|
|-12---12------12---8--10---8---10---8---10--|
|-10---12-12---12---8--10---8---10---8---10--|
|-10---10-13---10---6--8----6---8----6---8---|

Verse 1 Part 2
|-------------------------------------------------------------------------------|
|-------------------------------------------------------------------------------|
|-10---7--9----10---12---10------10---7--9---------------------10---7--9----10--|
|-12---8--10---10---12---12------12---8--10--------------------12---8--10---10--|
|-12---8--10---8----10---12-12---12---8--10---10---9---10-9----12---8--10---8---|
|-10---6--8----8----10---10-13---10---6--8----10---10--10-10---10---6--8----8---|

|----------------------------------------------------|
|----------------------------------------------------|
|-12---10------10---7--9----7---9----7---9----10-9---|
|-12---12------12---8--10---8---10---8---10---10-10--|
|-10---12-12---12---8--10---8---10---8---10----------|
|-10---10-13---10---6--8----6---8----6---8-----------|

Chorus 1:
|--------------------------------------------------------------------------------|
|-6--------------------6-------------------------6--------------------6----------|
|-7---9-----------10---7---9-----------10---12---7---9-----------10---7---9------|
|-7---10---8--8---10---7---10---8--8---10---12---7---10---8--8---10---7---10---8-|
|-5---10---8--8---8----5---10---8--8---8----10---5---10---8--8---8----5---10---8-|
|-5---8----6--5---8----5---8----6--5---8----10---5---8----6--5---8----5---8----6-|

|-----------------|
|-----------------|
|-----10--9---10--|
|-8---10--10--10--|
|-8---8---10--8---|
|-5---8---8---8---|

Verse 2: Same as Verse 1 Part 2

Chorus 2:
|--------------------------------------------------------------------------------|
|-6--------------------6-------------------------6--------------------6----------|
|-7---9-----------10---7---9-----------10---12---7---9-----------10---7---9------|
|-7---10---8--8---10---7---10---8--8---10---12---7---10---8--8---10---7---10---8-|
|-5---10---8--8---8----5---10---8--8---8----10---5---10---8--8---8----5---10---8-|
|-5---8----6--5---8----5---8----6--5---8----10---5---8----6--5---8----5---8----6-|

|-----------------|
|-----------------|
|-----10--12---5--|
|-8---10--12---5--|
|-8---8---10---3--|
|-5---8---10---3--|

Bridge Part 1: This has effects added to it so don't get discouraged if you can't
make it sound the same as on the CD
|--------------------------------|
|--------------------------------|
|--------------------------------|
|-3---2---2---3---3---2---2---3--|
|-5---3---0---1---5---3---0---1--|
|--------------------------------|

Bridge Part 2:
|-------------------------------------------------------------------------------|
|-6-------------------------6-----------------6-------------------------6-------|
|-7---9------------10--9----7---9--------10---7---9------------10--9----7---9---|
|-7---10---7---8---10--10---7---10---8---10---7---10---7---8---10--10---7---10--|
|-5---10---7---8---8---10---5---10---8---8----5---10---7---8---8---10---5---10--|
|-5---8----5---6---8---8----5---8----6---8----5---8----5---6---8---8----5---8---|

|---------------------------------|
|---------------------------------|
|--------7---9----7---9----10-9---|
|-8------8---10---8---10---10-10--|
|-8------8---10---8---10----------|
|-6------6---8----6---8-----------|

Chorus 3: Same as Chorus 1's first half but play this
for the second half
|----------------------------------------------|
|---------------------6------------------------|
|----------------10---7---9-----------10---12--|
|-3---2---8--8---10---7---10---8--8---10---12--|
|-5---3---8--8---8----5---10---8--8---8----10--|
|---------6--5---8----5---8----6--5---8----10--|

Outro:
|-5-------------------------------5---5---------------------------5---5------|
|-6-------------------------------6---6---------------------------6---5------|
|-7------10--9---10--9---10--12---7---7---10--9---10--9---9---7---7---7---10-|
|-7------10--10--10--10--10--12---7-------10--10--10--10--10--8---7-------10-|
|-5------8---10--8---10--8---10---5-------8---10--8---10--10--8---5-------8--|
|-5------8---8---8---8---8---10---5-------8---8---8---8---8---6---5-------8--|

|----------------------5----------------------------------|
|----------------------6----------------------------------|
|-9---10--9---10--12---7---7---10--9---10--9---9---9---7--|
|-10--10--10--10--12---7---7---10--10--10--10--10--10--8--|
|-10--8---10--8---10---5---5---8---10--8---10--10--10--8--|
|-8---8---8---8---10---5---5---8---8---8---8---8---8---6--|


WEATHERED TOME     Printable Text Version

Tabbed by Samhain138

 

*Note: Exact amount of strums and palm muting not shown*

Intro: Palm muted and played out
|----|
|----|
|-9--|
|-9--|
|-7--|
|-7--|

Verse 1:
|-----------------------------------------------|
|-----------------------------------------------|
|-9---7--9---12---10--9---7--9----------7--10---|
|-9---7--9---12---10--9---7--9---5--7---7--10---|
|-7---5--7---10---8---7---5--7---5--7---5--8----|
|-7---5--7---10---8---7---5--7---3--5---5--8----|

Transition 1:
|-----------------------------------------------|
|-----------------------------------------------|
|-7---9---7-------------7---9---6--------6---8--|
|-7---9---7---2-----2---7---9---7--------7---9--|
|-5---7---5---2-----2---5---7---7-(7)(7)-7---9--|
|-5---7---5---0--3--0---5---7---5--------5---7--|

Chorus 1: Played Twice
|-----------------------------------|
|-----------------------------------|
|-9---7-------5------9---7----------|
|-9---7---7---5--5---9---7---7---5--|
|-7---5---7---3--5---7---5---7---5--|
|-7---5---5---3--3---7---5---5---3--|

Transition 2: Same as Intro

Verse 2: Same as Verse 1

Transition 3: Same as Transition 1

Chorus 2: Same as Chorus 1

Transition 4: Same as Intro

Bridge:
|-7---5---5-----------------7---5---5---3---3--5---0--|
|-8---6---5-----------------8---6---5---3---3--5---0--|
|-9---7---6--------10--12---9---7---6---4---4--6---0--|
|-9---7---7---10---10--12---9---7---7---5---5--7---2--|
|-7---5---7---10---8---10---7---5---7---5---5--7---2--|
|-7---5---5---8----8---10---7---5---5---3---3--5---0--|

Outro: Same as Intro


AT A GLANCE    Printable Text Version

Tabbed by Samhain138

 

*Note: Exact amount of strums not shown and palm muting not shown*

Intro:
|----------------------------------------------------|
|----------------------------------------------------|
|----------------------------------------------------|
|-7--8--7--8-7-8-10---7--8--7--8-7-8--7--8--7--8--7--|
|-0--0--0--0-0-0-0----0--0--0--0-0-0--0--0--0--0--0--|
|----------------------------------------------------|

Verse 1:
|-------------------------------------------------------|
|-------------------------------------------------------|
|-10-7---10---10-7---10--5---10-7---10---5--6--7---7----|
|-10-7---10---10-7---10--5---10-7---10---5--6--7---7-8--|
|-8--5---8----8--5---8---3---8--5---8----3--4--5---5-8--|
|-8--5---8----8--5---8---3---8--5---8----3--4--5---5-6--|

Chorus 1:
|---------------------------------------|
|---------------------------------------|
|-----8-------5-------8---10------------|
|-5---8---8---5---5---8---10---8--3--5--|
|-5---6---8---3---5---6---8----8--3--5--|
|-3---6---6---3---3---6---8----6--1--3--|

Verse 2:
|------------------------------------------------------------|
|------------------------------------------------------------|
|-10-7-----10---10-7-----10-5---10-7-----10---5--6--7---7----|
|-10-7---8-10---10-7---8-10-5---10-7---8-10---5--6--7---7-8--|
|-8--5---8-8----8--5---8-8--3---8--5---8-8----3--4--5---5-8--|
|-8--5---6-8----8--5---6-8--3---8--5---6-8----3--4--5---5-6--|

Chorus 2: Same as Chorus 1

Bridge:
|-------------------------------------------------|
|-------------------------------------------------|
|-----8-------------------------------------------|
|-5---8---7------0--7--8--7-----------0--7--8--7--|
|-5---6---7------------------6--8--6--------------|
|-3---6---5---------------------------------------|

|-----------------------------------------------------------------------------|
|-----------------------------------------------------------------------------|
|-----------------------------------------------------------------------------|
|-------10--0--7--8--7-----------0--7--8--7--------10--0--7--8--7-----------0-|
|-6--8------------------6--8--6--------------6--8------------------6--8--6----|
|-----------------------------------------------------------------------------|

|-------------------------------------------------------------------------|
|-------------------------------------------------------------------------|
|-------------------------------------------------------------------------|
|-7--8--7--------10--0--7--8--7-----------10---7---0--7--8--7-----------0-|
|----------6--8------------------6--8--6--10---7---------------6--8--6----|
|-----------------------------------------8----5--------------------------|

|-----------------------------------------------------------------------|
|-----------------------------------------------------------------------|
|--------------------------------------------------------------------7--|
|-7--8--7--------10--0--7--8--7-----------10---7---10---7---10---7---7--|
|----------6--8------------------6--8--6--10---7---10---7---10---7---5--|
|-----------------------------------------8----5---8----5---8----5---5--|

Chorus 3: Same as Chorus 1 but twice as long

Slow Breakdown: Repeat this 8 times
|-----------------|
|-----------------|
|-----------------|
|-------------7---|
|-1---5---3---5---|
|-3---6---1-------|

End of Song:
|----------------------------------------------------------------------------|
|----------------------------------------------------------------------------|
|-12---15---14---17---19---20---17---15--14--12--15--14--12--15--14--12--10--|
|-X----X----X----X----X----X----X----X---X---X---X---X---X---X---X---X---X---|
|-10---13---12---15---17---18---15---13--12--10--13--12--10--13--12--10--8---|
|----------------------------------------------------------------------------|

|-----------------------------------|
|-----------------------------------|
|-14---12---12\10--10/14---14\7-----|
|-X----X----X-\X---X-/X----X-\X--5--|
|-12---10---10\8---8-/12---12\5--5--|
|--------------------------------3--|


GOD CALLED IN SICK TODAY    Printable Text Version

Tabbed by Samhain138

 

*Note: Exact amount of strums not shown, palm muting not shown*

Intro: Clean guitar
|-------------------------------------------------------------------------------|
|-------------------------------------------------------------------------6-----|
|-----3-----3---------2-----2---------2-----2---------3-----3---------3-----3---|
|-5-5---5-5---5-5-3-3---3-3---3-3-0-0---0-0---0-0-1-1---1-1---1-1-5-5---5-----5-|
|-------------------------------------------------------------------------------|
|-------------------------------------------------------------------------------|

|--------------------------------------------------|
|--------------------------------------------------|
|-------2-----2---------2-3-2---------3-----3------|
|-5-3-3---3-3---3-3---3-------3---1-1---1-1---1-1--|
|-------------------5-----------5------------------|
|--------------------------------------------------|

Verse 1: Clean guitar
|-------------------------------------------------------------------------------|
|-------------------------------------------------------------------------6-----|
|-----3-----3---------2-----2---------2-----2---------3-----3---------3-----3---|
|-5-5---5-5---5-5-3-3---3-3---3-3-0-0---0-0---0-0-1-1---1-1---1-1-5-5---5-----5-|
|-------------------------------------------------------------------------------|
|-------------------------------------------------------------------------------|

|-------------------------------------------------------------------------------|
|-------------------------------------------------------------------------------|
|-------2-----2---------2-3-2---------3-----3-----3-----------------------7---8-|
|-5-3-3---3-3---3-3---3-------3---1-1---1-1---1-1-5---12--10--7---8---12--7---8-|
|-------------------5-----------5---------------------10--8---5---6---10--5---6-|
|-------------------------------------------------------------------------5---6-|

Chorus 1: Distorted guitar
|----------------------------------------|
|---------12--10----------12--10---------|
|-7---9---12--10--7---9---12--10---------|
|-8---10--12--10--8---10--12--10--3--5---|
|-8---10--10--8---8---10--10--8---3--5---|
|-6---8---10--8---6---8---10--8---1--3---|

Verse 2: Distorted guitar
|-------------------------------------------------------------------------------|
|-------------------------------------------------------------------------6-----|
|-----3-----3---------2-----2---------2-----2---------3-----3---------3-----3---|
|-5-5---5-5---5-5-3-3---3-3---3-3-0-0---0-0---0-0-1-1---1-1---1-1-5-5---5-----5-|
|-------------------------------------------------------------------------------|
|-------------------------------------------------------------------------------|

|---------------------------------------------------------------------|
|---------------------------------------------------------------------|
|-------2-----2---------2-3-2---------3-----3-------------------------|
|-5-3-3---3-3---3-3---3-------3---1-1---1-1---1-1-8----7---7---8---8--|
|-------------------5-----------5-----------------10---8---5---6---10-|
|-------------------------------------------------10---8---5---6---10-|

|-------------|
|-------------|
|-----7---8---|
|-7---7---8---|
|-8---5---6---|
|-8---5---6---|

Chorus 2:
|----------------------------------------------------------------|
|---------12--10----------12--10----------12--10----------12--10-|
|-7---9---12--10--7---9---12--10--7---9---12--10--7---9---12--10-|
|-8---10--12--10--8---10--12--10--8---10--12--10--8---10--12--10-|
|-8---10--10--8---8---10--10--8---8---10--10--8---8---10--10--8--|
|-6---8---10--8---6---8---10--8---6---8---10--8---6---8---10--8--|

Bridge:
|-5---3---5---6---5---3---5---6------------------------------------------------|
|-6---5---5---6---6---5---5---6------------------------------------------------|
|-7---5---6---7---7---5---6---7----------------------------------------3-3-3---|
|-7---5---7---8---7---5---7---8---3--5---2--3--2--------------------3--2-3-2-2-|
|-5---3---7---8---5---3---7---8---5--5---3--3--3---7--8---8--10-8---5--------3-|
|-5---3---5---6---5---3---5---6--------------------5--5---6--6--6--------------|

|---------------6------3------6------3---6---|
|---------------6------3------6------3---8---|
|---------------7------4------7------4---8---|
|-3--5----------8---3--5---3--8---3--5---8---|
|-3--3---7--8---8---3--5---3--8---3--5---6---|
|--------5--5---6---1--3---1--6---1--3---6---|

Chorus 3: Same as Chorus 2
But ends with this:
|-6------3---|
|-6------3---|
|-7------4---|
|-8---3--5---|
|-8---3--5---|
|-6---1--3---|


MIDNIGHT SUN    Printable Text Version

Tabbed by Samhain138

 

*Note: Exact amount of strums and palm muting not shown*

Intro: These are all harmonics with distorted guitar
|-12-----------5-----------------------|
|------7------------------7-------12---|
|----------5----------7-------5--------|
|--------------------------------------|
|--------------------------------------|
|--------------------------------------|

Verse 1:
|------------------------------------------------------------------------------|
|------------------------------------------------------------------------------|
|-9---9-7---9----------------------------9---9-7---9---------------------------|
|-9---9-7---9---8---10---10-9---11---5---9---9-7---9---8---10---10-9---11---5--|
|-7---7-5---7---8---10---10-9---11---5---7---7-5---7---8---10---10-9---11---5--|
|-7---7-5---7---6---8----8--7---9----3---7---7-5---7---6---8----8--7---9----3--|

Chorus 1:
|------------------------------------------|
|------------------------------------------|
|-9---5----------------9---5---------------|
|-9---5---3--2--5--4---9---5---3--2--5--4--|
|-7---3---0--0--2--2---7---3---0--0--2--2--|
|-7---3----------------7---3---------------|

Verse 2: Same as Verse 1

Chorus 2: Same as Chorus 1 but twice as long

Bridge:
|--------------------------------------------------------------------------------|
|--------------------------------------------------------------------------------|
|-9---7---9---7---9--------------------------------------------9---7---9---7---9-|
|-9---7---9---7---9---12--11---10---8---10---9---11---12--11---9---7---9---7---9-|
|-7---5---7---5---7---10--10---10---8---10---9---11---10--10---7---5---7---5---7-|
|-7---5---7---5---7---10--10---8----6---8----7---9----10--10---7---5---7---5---7-|

|-----------------------------------------------------------------|
|-----------------------------------------------------------------|
|-----------------------------------------------------------------|
|-12--11---10---8---10---9---11---12--11--12--11--12--11--12--11--|
|-10--10---10---8---10---9---11---10--10--10--10--10--10--10--10--|
|-10--10---8----6---8----7---9----10--10--10--10--10--10--10--10--|

Interlude: It sounds like this was recorded with an unplugged electric guitar using
a microphone up to the strings.
Play this 4 times downstroked:
|-7---5---5--5---7--7---|
|-5---5---6--5---8--7---|
|-4---5---7--7---9--9---|
|---------7--7---9--9---|
|-----------------------|
|-----------------------|

Chorus 3: Same as Chorus 2

End chord:
|----|
|----|
|----|
|-2--|
|-2--|
|-0--|


LOWER IT    Printable Text Version

Tabbed by Samhain138

 

*Note: Exact amount of strums and palm muting not shown*
*The recording I used for this was horrible so don't expect this tab to be
very accurate, I did my best*

Verse 1:
|--------------------------------------------------------------------------|
|--------------------------------------------------------------------------|
|-7--4---7---9----7--4---7---2---7--4---7---9----7--4---7---2---7---7---7--|
|-7--5---8---10---7--5---8---3---7--5---8---10---7--5---8---3---7---7---7--|
|-5--5---8---10---5--5---8---3---5--5---8---10---5--5---8---3---5---5---5--|
|-5--3---6---8----5--3---6---1---5--3---6---8----5--3---6---1---5---5---5--|

|----|
|----|
|-7--|
|-8--|
|-8--|
|-6--|

Chorus 1:
|---------------------------------------------------------|
|---------------------------------------------------------|
|-4---2--5---4---7-5--3-2---4---2--5---4---7-5--3-2-------|
|-5---3--5---5---7-5--3-3---5---3--5---5---7-5--3-3-------|
|-5---3--3---5---5-3--1-3---5---3--3---5---5-3--1-3-------|
|-3---1--3---3---5-3--1-1---3---1--3---3---5-3--1-1--3----|

Verse 2: Same as Verse 1

Chorus 2: Same as Chorus 1 without the last note

Bridge:
|-----------------------------------------------|
|-------10---------10---------10----------------|
|-8--7--10---8--7--10---8--7--10---8--7--7---5--|
|-8--8--10---8--8--10---8--8--10---8--8--7---5--|
|-6--8--8----6--8--8----6--8--8----6--8--5---3--|
|-6--6--8----6--6--8----6--6--8----6--6--5---3--|

Transition:
|---------------------------|
|---------------------------|
|-4---2--5---4---7-5--3-2---|
|-5---3--5---5---7-5--3-3---|
|-5---3--3---5---5-3--1-3---|
|-3---1--3---3---5-3--1-1---|

Chorus 3: Same as Chorus 2

Outro:
|-------------------------------------------------|
|-------------------------------------------------|
|-7---7--7---8---5---6------7---7--7---8---5---6--|
|-5---4--3---8---5---5------5---4--3---8---5---5--|
|------------6---3---4-----------------6---3---4--|
|------------6---3---------------------6---3------|


                                                                      Website Design by Samhain138

                                                                                                                 Copyrights

                                                                                         http:// thevalleyofdreams.tripod.com/