Make your own free website on Tripod.com

[Other Songs]

 

Transference

Hearts Frozen Soil Thawed Once More By The Spring Of Rage, Despair And Hopelessness

 


TRANSFERENCE    Printable Text Version

Tabbed by Samhain138

 

*Note: Exact amount of strums and palm muting not shown*

Intro:
|-5---1---8----6---5---1---8-------|
|-5---1---8----6---5---1---8-------|
|-7---3---10---8---7---3---10---8--|
|-7---3---10---8---7---3---10---8--|
|-5---1---8----6---5---1---8----6--|
|-5---1---8----6---5---1---8----6--|

Verse 1: () Means harmonic
|--------------------------------------------------------------|
|--------------------------------------------------------------|
|-7--------------------------5---7--------------------------5--|
|-7---3--5---6--7--------3---5---7---3--5---6--7--------3---5--|
|-5---3--5---6--7--------3---3---5---3--5---6--7--------3---3--|
|-5---1--3---4--5--(5)---1---3---5---1--3---4--5--(5)---1---3--|

Chorus 1:
|-------------------------------------------------------|
|-------------------------------------------------------|
|-7-----10------7-----10--8--7-----10------7-----10--8--|
|-7--8--10--10--7--8--10--8--7--8--10--10--7--8--10--8--|
|-5--8--8---10--5--8--8---6--5--8--8---10--5--8--8---6--|
|-5--6--8---8---5--6--8---6--5--6--8---8---5--6--8---6--|

Verse 2: Same as Verse 1

Chorus 2: Same as Chorus 1

Bridge:
|-5-------------------------------------------------------------------------|
|-5-------------------------------------------------------------------------|
|-7------7-------10---8---7-------10---8---7-------10---8---7-------10---8--|
|-7------7---8---10---8---7---8---10---8---7---8---10---8---7---8---10---8--|
|-5------5---8---8----6---5---8---8----6---5---8---8----6---5---8---8----6--|
|-5------5---6---8----6---5---6---8----6---5---6---8----6---5---6---8----6--|

Chorus 3: Same as Chorus 1

End:
|-5-----3--3--3--3-5--|
|-5-----3--3--3--3-5--|
|-7-----5--5--5--5-7--|
|-7-----5--5--5--5-7--|
|-5-----3--3--3--3-5--|
|-5-----3--3--3--3-5--|


HEARTS FROZEN SOIL THAWED ONCE MORE BY THE SPRING OF RAGE, DESPAIR, AND HOPELESSNESS

Printable Text Version

Tabbed by Jade Puget

 

Intro (Chorus):
|---3---5---7---3---3---5---3---x----8-----7---|
|---3---7---8---5---3---7---3---x---10----8----|
|---4---7---9---5---4---7---2---x---10----9----|
|---5---7---9---5---5---7---3---2---10----9----|
|---5---5---7---3---5---5---3---2----8----7----|
|---3---5---7---3---3---5---1---x----8----7----|

Verse:
|--------------------------------------------5-|
|--------------------------------------------7-|
|---x---5---4---x---5---4---x---5---4---7------|
|---2---5---5---2---5---5---2---5---5---7------|
|---2---3---5---2---3---5---2---3---5---5------|
|---x---3---3---x---3---3---x---3---3---5------|

And the final chorus ends on the G major barre:
|----3----|
|----3----|
|----4----|
|----5----|
|----5----|
|----3----|


                                                                      Website Design by Samhain138

                                                                                                                 Copyrights

                                                                                         http:// thevalleyofdreams.tripod.com/