Make your own free website on Tripod.com

[Shut Your Mouth And Open Your Eyes]

 

Keeping Out Of Direct Sunlight (An Introduction)

Three Reasons

A Single Second

pH Low

Let It Be Broke

Third Season

Lower Your Head And Take It In The Body

Coin Return

The New Patron Saints And Angels

Three Seconds Notice

Salt For Your Wounds

Today's Lesson

The Devil Loves You

Triple Zero

Last Caress

 


A SINGLE SECOND    Printable Text Version

Tabbed by Samhain138

 

*Note: Exact amount of strums and palm muting not shown*

Intro:
|----------------------------|
|----------------------------|
|---------------8-7------12--|
|-5------5------8-7------12--|
|-5------5------6-5------10--|
|-3------3-------------------|

Verse 1:
|-------------------------------------------------------------------------------|
|-------------------------------------------------------------------------------|
|-----3--5---7--8-------3--5---8--10-------3--5---7--8---10---8--7---8-------3--|
|-5---3--5---7--8---5---3--5---8--10---5---3--5---7--8---10---8--7---8---5---3--|
|-5---1--3---5--6---5---1--3---6--8----5---1--3---5--6---8----6--5---6---5---1--|
|-3-----------------3------------------3---------------------------------3------|

|------------------------------------------------------------|
|------------------------------------------------------------|
|-5---7--8-------3--5---8--10-------3--5---7--8---10---8--7--|
|-5---7--8---5---3--5---8--10---5---3--5---7--8---10---8--7--|
|-3---5--6---5---1--3---6--8----5---1--3---5--6---8----6--5--|
|------------3------------------3----------------------------|

Chorus 1:
|-------------------------------------|
|-------------------------------------|
|-12---8-------10---12---8-------10---|
|-12---8---8---10---12---8---8---10---|
|-10---6---8---8----10---6---8---8----|
|----------6-----------------6--------|

Transition:
|----|
|----|
|----|
|-5--|
|-5--|
|-3--|

Verse 2: Same as Verse 1 but half as long

Chorus 2: Same as Chorus 1

Bridge:
|----------------------------------------------------------------------------|
|----------------------------------------------------------------------------|
|-----------3---5---7--8-------3-------8-------3---5---7--8-------3-------8--|
|-5-----5---3---5---7--8---5---3---3---8---5---3---5---7--8---5---3---3---8--|
|-5-----5---1---3---5--6---5---1---3---6---5---1---3---5--6---5---1---3---6--|
|-3-----3------------------3-------1---6---3------------------3-------1---6--|

|---------|
|---------|
|-----12--|
|-5---12--|
|-5---10--|
|-3---10--|

Chorus 3: Same as Chorus 1 but twice as long
|----|
|----|
|----|
|-5--|
|-5--|
|-3--|


LET IT BE BROKE    Printable Text Version

Tabbed by Jade

 

smooth sliding rhythm pre-verse
|--7----9----------------------------5-----7-----3----3-----5--5----x----2----2-------------|
|--9----11---------------------------5-----7-----3----5-----5--5----x----2----2-------------|
|--9----11---------------------------6-----8-----4----5-----6--6----x----3----3-------------|
|--9----11---------------------------7-----9-----5----5-----7--7----x----4----4-------------|
|--7----9----------------------------7-----9-----5----3-----7--7----x----4----4-------------|
|--7----9----------------------------5-----7-----3----3-----5--5----x----2----2-------------|

verse: bridge:

4 times
|--x--2-------3----5---|------3----2----3----2----3----2--x--2----3--3----5----7----9-------|
|--x--2-------3----5---|------5----2----5----2----5----2--x--2----5--5----7----9----11------|
|--1--3-------4----6---|------5----3----5----3----5----3--1--3----5--5----7----9----11------|
|--2--4-------5----7---|------5----4----5----4----5----4--2--4----5--5----7----9----11------|
|--2--4-------5----7---|------3----4----3----4----3----4--2--4----3--3----5----7----9-------|
|--x--2-------3----5---|------3----2----3----2----3----2--x--2----3--3----5----7----9-------|

chorus: (hitting the strings muted-open here gives it the bounce rhythm)

|--9--9--x-----7-x----5--5-x----7--7-x----5-x----2--2----9--9---x---7-x---5--5-x----10------|
|-11-11-x------9-x----7--7-x----7--7-x----5-x----2--2---11-11---x---9-x---7--7-x----12------|
|-11-11-x------9-x----7--7-x----8--8-x----6-x----3--3---11-11---x---9-x---7--7-x----12------|
|-11-11-x------9-x----7--7-x----9--9-x----7-x----4--4---11-11---x---9-x---7--7-x----12------|
|--9--9--x-----7-x----5--5-x----9--9-x----7-x----4--4----9--9---x---7-x---5--5-x----10------|
|--9--9--x-----7-x----5--5-x----7--7-x----5-x----2--2----9--9---x---7-x---5--5-x----10------|

pre-verse 2
verse 2
chorus 2 (at the end of the second chorus, the chord progression is played through again 

double-time)

breakdown: The breakdown is just a combination of previously played parts. 
It starts with the pre-verse then transitions to a strummed-out A major barre chord
(or you can play it as an octave 

D----7----
A----x----
E----5----

The rest of it is just the first half of the chorus repeated with harmonics and string noise. 
To get this sound, drag your finger down the strings picking up the 
harmonics and hitting the D,G,B, and E strings while muting with your picking hand.


THE NEW PATRON SAINTS AND ANGELS     Printable Text Version

Tabbed by Samhain138

 

*Note: Exact amount of strums and palm muting not shown*

Intro: Guitar 1: Guitar 2:
|-(bass intro)------------|--------------------|---------------------------|
|-------------------------|--------------------|---------------------------|
|------------------9------|---11---------------|--11---7---4---------------|
|--------------7---9---9--|---X----------------|--11---7---4---------------|
|--------------7---7---9--|---9----------------|--9----5---2---------------|
|--------------5-------7--|------(pick slide)--|--------------(pick slide)-|

Verse 1:
|------------------------------------------------------------|
|------------------------------------------------------------|
|-9---7--5---7------------------9---7--5---7-----------------|
|-9---7--5---7--7---9--10---9---9---7--5---7--7---9--10---9--|
|-7---5--3---5--7---9--10---9---7---5--3---5--7---9--10---9--|
|---------------5---7--8----7-----------------5---7--8----7--|

Chorus 1:
|----------------------------------------|
|----------------------------------------|
|-11---7------11-------9----------7---4--|
|-11---7--7---11---7---9--9---4---7---4--|
|-9----5--7---9----7---7--9---4---5---2--|
|---------5--------5------7---2----------|

Verse 2: Same as Verse 1

Chorus 2: Same as Chorus 1 but twice as long

Bridge Part 1: Play 4 times
|------------------|
|------------------|
|-----7--5---7--5--|
|-2---7--5---7--5--|
|-2---5--3---5--3--|
|-0----------------|

Bridge Part 2:
|-------------------------------------------------------------------------------|
|-------------------------------------------------------------------------------|
|-----7--5---7--5---7--5---7--5---7--5---7--5---7--5---7--5--------------9---11-|
|-2---7--5---7--5---7--5---7--5---7--5---7--5---7--5---7--5--2---2---2---9---11-|
|-2---5--3---5--3---5--3---5--3---5--3---5--3---5--3---5--3--2---2---2---7---9--|
|-0----------------------------------------------------------0---0---0---7------|


Chorus 3:
|----------------------------------------------------------------------------|
|----------------------------------------------------------------------------|
|-----9-------11---7---4------11---7------11-------9------11---7---4---------|
|-7---9---9---11---7---4------11---7--7---11---7---9--9---11---7---4------4--|
|-7---7---9---9----5---2------9----5--7---9----7---7--9---9----5---2------4--|
|-5-------7---9---------------9-------5---9----5------7---9---------------2--|


TRIPLE ZERO    Printable Text Version

Tabbed by Samhain138

 

*Note: Exact amount of strums and palm muting not shown*

Intro:
|-------------------------------------------------|
|-10----------10----------10----------10----------|
|-9-----------9-----------9-----------9-----------|
|-7-----------7-----------7-----------7-----------|
|-7--------6--7--------6--7--------6--7--------6--|
|------3/5-5-------3/5-5-------3/5-5-------3/5-5--|

Verse 1:
|------------------------------------------------------------------------|
|------------------------------------------------------------------------|
|----------------------8------------------------8----------8----------8--|
|-7---5--7---------7---8---7---5--7---------7---8---7------8---7------8--|
|-7---5--7---------7---6---7---5--7---------7---6---7------6---7------6--|
|-5---3--5---5/8b--5-------5---3--5---5/8b--5-------5----------5---------|

Chorus 1:
|-----------------------------------------------------------------------|
|-----------------------------------------------------------------------|
|-----10-----------------10------------------10-----------------10---7--|
|-7---10---10------5-7---10---10------12-7---10---10------5-7---10---X--|
|-7---8----10------5-7---8----10------12-7---8----10------5-7---8----5--|
|-5--------8-------3-5--------8-------10-5--------8-------3-5-----------|

Verse 2: Same as Verse 1

Chorus 2: Same as Chorus 1

Bridge:
|---------------------------------------------------------------------------|
|---------------------------------------------------------------------------|
|-7------------------------------8---------------------------8--------------|
|-X------------------------------8---7---5--7------------7---8---7---5--7---|
|-5------/6------/6------/6------6---7---5--7------------7---6---7---5--7---|
|------------------------pickslide---5---3--5---5/8h9p8--5-------5---3--5---|

|-------------------------------------------------------------------------|
|-------------------------------------------------------------------------|
|--------------8---------------------------8---------------------------8--|
|----------7---8---7---5--7------------7---8---7---5--7------------7---8--|
|----------7---6---7---5--7------------7---6---7---5--7------------7---6--|
|-5/8h9p8--5-------5---3--5---5/8h9p8--5-------5---3--5---5/8h9p8--5------|

Chorus 3: Same as Chorus 1

Outro: 
Same as Intro but play this after:
|-----------11--|
|-10--------X---|
|-9----10---10--|
|-7----7----7---|
|-7----7----7---|
|---------------|


                                                                                              Website Design by Samhain138

                                                                                                                 Copyrights

                                                                                         http:// thevalleyofdreams.tripod.com/