Make your own free website on Tripod.com

[The Art Of Drowning]

 

Initiation

The Lost Souls

The Nephilim

Ever And A Day

Sacrifice Theory

Of Greetings And Goodbyes

Smile

A Story At Three

The Days Of The Phoenix

Catch A Hot One

Wester

6 to 8

The Despair Factor

Morningstar

Battled

Dream Of Waking

 


THE LOST SOULS    Printable Text Version

Tabbed by Samhain138

 

*Note: Exact amount of strums not shown*

Intro: Let the open A string ring out each time
|----------------------------------------------------------|
|----------------------------------------------------------|
|----5--4--7--5--9------5--4--7---4------5--4--7--5--9-----|
|-7------------------7------------5---7------------------7-|
|-0------------------0------------5---0------------------7-|
|---------------------------------3----------------------5-|

Verse 1:
|---------------------------------------------------------------------------|
|---------------------------------------------------------------------------|
|-7---10---5---7-----------7---10---5---7-----------7---10---5---7----------|
|-7---10---5---7---8---7---7---10---5---7---8---7---7---10---5---7---8---7--|
|-5---8----3---5---8---7---5---8----3---5---8---7---5---8----3---5---8---7--|
|-5---8----3---5---6---5---5---8----3---5---6---5---5---8----3---5---6---5--|

|---------------------------|
|---------------------------|
|-7---10---5---7------------|
|-7---10---5---7---8---10---|
|-5---8----3---5---8---10---|
|-5---8----3---5---6---8----|

Chorus 1:
|------------------------------------------|
|------------------------------------------|
|-7---5---------10---7---5---------10--12--|
|-7---5---5-8---10---7---5---5-8---10--12--|
|-5---3---5-8---8----5---3---5-8---8---10--|
|-5---3---3-6---8----5---3---3-6---8---10--|

Pre-Verse:
|-------------------|
|-------------------| 
|-7---10---12---14--|
|-X---X----X----X---|
|-5---8----10---12--|
|-------------------|

Verse 2: Same as Verse 1 but half as long

Chorus 2: Same as Chorus 1

Bridge:
|-------------------------------10-13-----13----12-------13----------8----|
|----------------------10-12-13-------10-----10----10-10----10-10-10---10-|
|--------------9-10-12----------------------------------------------------|
|-3--/--7-----------------------------------------------------------------|
|-------------------------------------------------------------------------|
|-------------------------------------------------------------------------|

|-8----10----12----13-----13-----13----12-------13----------8-----8----|
|---10----11----11-----11----10-----10----10-10----10-10-10---10----10-|
|----------------------------------------------------------------------|
|----------------------------------------------------------------------|
|----------------------------------------------------------------------|
|----------------------------------------------------------------------|

|----10-12-13------12-13---------------------------------------------|
|-11-11-11-10------10-10---------------------------------------------|
|-----------------------------7--9--10--12--14----------7--9--10--12-|
|-----------------------------X--X--X---X---X---7---8---X--X--X---X--|
|-----------------------------5--7--8---10--12--7---8---5--7--8---10-|
|-----------------------------------------------5---6----------------|

|-------------------------|
|-------------------------|
|-14----------7------14---|
|-X---7---8---X------X----|
|-12--7---8---5------12---|
|-----5---6---------------|

Chorus 3: Same as Chorus 1 but twice as long

End: Fast palm muting in between each of these chords
|----|
|----|
|-7--|
|-X--|
|-5--|
|----|


THE NEPHILIM     Printable Text Version

Tabbed by Samhain138

 

*Note: Exact amount of strums and palm muting not shown*

Intro:
|-------------------10---5--|
|-------------------12---7--|
|--------9----------12---7--|
|--------X----------12---7--|
|-7------7---5--7---10---5--|
|--------0----------10---5--|

Verse 1:
|-------------------------------------------------------------------------------|
|-------------------------------------------------------------------------------|
|-7--9------9---7--9------9---7--9------9---12---7---7--9------9---7--9------9--|
|-7--9--9---9---7--9--9---9---7--9--9---9---12---7---7--9--9---9---7--9--9---9--|
|-5--7--10--7---5--7--10--7---5--7--10--7---10---5---5--7--10--7---5--7--10--7--|
|-5--7--7---7---5--7--7---7---5--7--7---7---10---5---5--7--7---7---5--7--7---7--|

|--------------|
|--------------|
|-7--9------9--|
|-7--9--9---9--|
|-5--7--10--7--|
|-5--7--7---7--|

Transition 1:
|--------------------------------------|
|--------------------------------------|
|-7--9---7--9---7--9--7----------------|
|-7--9---7--9---7--9--7----------------|
|-5--7---5--7---5--7--5----------------|
|---------------------5--(Pick Slide)--|

Chorus1:
|-10---5---------------------10---5----------------------|
|-12---7---------------------12---7----------------------|
|-12---7---9--9---12--7--9---12---7---9--9---12--14--11--|
|-12---7---9--9---X---X--X---12---7---9--9---X---X---X---|
|-10---5---7--7---10--5--7---10---5---7--7---10--12--9---|
|-10---5---7--7--------------10---5---7--7---------------|

Transition 2:
|------------------------------------------------------------------------|
|------------------------------------------------------------------------|
|---------4--7-----------4--7-----------4--7-----------4--7--7---11--14--|
|-----5---------5----5--------5-----5---------5----5---------7---X---X---|
|-7-7---7----------7---7--------7-7---7----------7---7-------5---9---12--|
|------------------------------------------------------------5-----------|

Verse 2: Same as Verse 1

Transition 3: Same as Transition 1

Chorus 2: Same as Chorus 1

Transition 4:
|------------------------------------------------------------|
|------------------------------------------------------------|
|---------4--7-----------4--7-----------4--7-----------4--7--|
|-----5---------5----5--------5-----5---------5----5---------|
|-7-7---7----------7---7--------7-7---7----------7---7-------|
|------------------------------------------------------------|

Bridge:
|------------------5-------0-------------------|
|------------------7---------0--------------7--|
|--------5--5------7-----------0--5--5------7--|
|-2------5--5--5---7---2----------5--5--5---7--|
|-2------3--3--5---5---2----------3--3--5---5--|
|-0------3--3--3---5---0----------3--3--3------|

Bridge Outro:
|-10---5--|
|-12---7--|
|-12---7--|
|-12---7--|
|-10---5--|
|-10---5--|

Chorus 3: Same as Chorus 1

Outro:
|-----------------------------------------------------------------------|
|-----------------------------------------------------------------------|
|-12---12---10-----------4--7------------4-7------------4--7------------|
|-12---12---10-------5---------5----5--------5------5---------5----5----|
|-10---9----8----7-7---7----------7---7---------7-7---7----------7---7--|
|-10---10---8-----------------------------------------------------------|

|-----------|
|-----------|
|-7--10--9--|
|-7--10--9--|
|-5--8---7--|
|-5--8---7--|


EVER AND A DAY    Printable Text Version

Tabbed by Samhain138

 

*Note: Exact amount of strums and palm muting not shown*

Intro: Repeat this twice without the last chord at the end
|--------------------------------------------------------------------------------|
|--------------------------------------------------------------------------------|
|-8---7---8--5---8---10--12---10---8--10---8---7--8---7---8--5---8---10--12---13-|
|-X---X---X--X---X---X---X----X----X--X----X---X--X---X---X--X---X---X---X----X--|
|-6---5---6--3---6---8---10---8----6--8----6---5--6---5---6--3---6---8---10---11-|
|--------------------------------------------------------------------------------|

|--------|
|--------|
|-10--5--|
|-X---5--|
|-8---3--|
|-----3--|

Verse 1: Clean guitar and mostly palm muted
|-------------------------------------------------------------------------------|
|-------------------------------------------------------------------------------|
|---------5---------------5---------------5---------------5---------------8-----|
|-------------------------------------------------------------------------------|
|-3-3-3-3---3-3-3-3-3-3-3---3-3-1-3-3-3-3---3-3-3-3-3-3-3---3-3---6-6-6-6---6-6-|
|---------------------------------------------------------------6---------------|

|-------------------------------------------------------------------------------|
|-------------------------------------------------------------------------------|
|-----------3---------------5---------------5---------------5---------------5---|
|-------------------------------------------------------------------------------|
|-6-1-1-1-1---1-----3-3-3-3---3-3-3-1-3-3-3---3-3-1-3-3-3-3---3-3-3-3-3-3-3---3-|
|---------------3-3-------------------------------------------------------------|

|-------------------------------------------------------------------------------|
|-------------------------------------------------------------------------------|
|-------------5---------------5---------------8---------------3---------------5-|
|-------------------------------------------------------------------------------|
|-3-1-3-3-3-3---3-3-3-3-3-3-3---3-3---6-6-6-6---6-6-6-1-1-1-1---1-----3-3-3-3---|
|-----------------------------------6-----------------------------3-3-----------|

|-----------------------------------------------------------------------|
|-----------------------------------------------------------------------|
|---------------5---------------8---------------3-3-3-3---5-------------|
|-------------------------------------------------3-3-3---5-------------|
|-3-3-3-1-3-3-3---3-3---6-6-6-6---6-6-6-1-1-1-1---1-1-1---3-------------|
|---------------------6-----------------------------------3--Pick slide-|

Transition:
|------------------------------------|
|------------------------------------|
|-8--------------12--10--8-----------|
|-8---8---8/10---X---X---8---8---10--|
|-6---8---8/10---10--8---6---8---10--|
|-6---6---6/8------------6---6---8---|

Verse 2: Distorted and mostly palm muted
|-------------------------------------------------------------------------------|
|-------------------------------------------------------------------------------|
|---------5---------------5---------------5---------------5---------------8-----|
|-------------------------------------------------------------------------------|
|-3-3-3-3---3-3-3-1-3-3-3---3-3-1-3-3-3-3---3-3-3-1-3-3-3---3-3-3-6-6-6-6---6-6-|
|-------------------------------------------------------------------------------|

|-----------------------------------------------------------------------------|
|-------------------------------------------4---4-----------------------------|
|-----------3---------------5-----------------5-----------5---------------5---|
|-----------------------------------------------------------------------------|
|-6-1-1-1-1---1-----3-3-3-3---3-3-3-1-3-3-3-------3-3-3-3---3-3-3-1-3-3-3---3-|
|---------------3-3-----------------------------------------------------------|

|-------------------------------------------------------------------------------|
|-------------------------------------------------------------------------------|
|-------------5---------------5---------------8---------------3---------------5-|
|-------------------------------------------------------------------------------|
|-3-1-3-3-3-3---3-3-3-1-3-3-3---3-3-3-6-6-6-6---6-6-6-1-1-1-1---1-----3-3-3-3---|
|-----------------------------------------------------------------3-3-----------|

|---------------------------------------------------------|
|---------------------------------------------------------|
|---------------5---------------8---------------3------5--|
|------------------------------------------------------5--|
|-3-3-3-1-3-3-3---3-3-3-6-6-6-6---6-6-6-1-1-1-1---1-1--3--|
|------------------------------------------------------3--|

Chorus 1:
|------------------------------------------------------------------------|
|------------------------------------------------------------------------|
|-8------------12--10--8----------------8------------12--10--8-----------|
|-8---8---10---12--10--8---8---10-------8---8---10---12--10--8---8---10--|
|-6---8---10---10--8---6---8---10-------6---8---10---10--8---6---8---10--|
|-6---6---8------------6---6---8----10--6---6---8------------6---6---8---|

Bridge:
|--------------------------------------------------------------|
|--------------------------------------------------------------|
|------------------------8-------------8-------------8---------|
|--------------8/10---8--8---8/10---8--8---8/10---8--8---8/10--|
|--------------8/10---8--6---8/10---8--6---8/10---8--6---6/10--|
|-10-Pickslide-6/8----6--6---6/8----6--6---6/8----6--6---6/8---|

Chorus 2: Same as Chorus 1


SACRIFICE THEORY    Printable Text Version

Tabbed by Samhain138

 

*Note: Exact amount of strums and palm muting not shown*

Intro:
|-7---7-----7---7--7----7----7--7--7--7--|
|-7-----7---7---7--7----7----7--7--7--7--|
|-7-------7-7---9--7----7----7--7--7--7--|
|-9---------9---9--9----9----9--9--9--9--|
|-9---------9---9--9----9----9--9--9--9--|
|-7---------7---7--7----7----7--7--7--7--|

Verse 1:
|-7---3--5---7---3--5---7---3--5--3---5---7---3--5---7---3--5---7---3--5--3---5-|
|-7---3--5---7---3--5---7---3--5--3---5---7---3--5---7---3--5---7---3--5--3---5-|
|-7---4--6---7---4--6---7---4--6--4---6---7---4--6---7---4--6---7---4--6--4---6-|
|-9---5--7---9---5--7---9---5--7--5---7---9---5--7---9---5--7---9---5--7--5---7-|
|-9---5--7---9---5--7---9---5--7--5---7---9---5--7---9---5--7---9---5--7--5---7-|
|-7---3--5---7---3--5---7---3--5--3---5---7---3--5---7---3--5---7---3--5--3---5-|

Chorus 1:
|-5---5---7---3------5---5---5---7---3------5---2--|
|-7---5---7---3------5---7---5---7---3------5---2--|
|-7---6---7---4---7--6---7---6---7---4---7--6---3--|
|-7---7---9---5---7--7---7---7---9---5---7--7---4--|
|-5---7---9---5---5--7---5---7---9---5---5--7---4--|
|-5---5---7---3---5--5---5---5---7---3---5--5---2--|

Transition:
|-7---3--5---7---3--5---7---3--5---3---5--|
|-7---3--5---7---3--5---7---3--5---3---5--|
|-7---4--6---7---4--6---7---4--6---4---6--|
|-9---5--7---9---5--7---9---5--7---5---7--|
|-9---5--7---9---5--7---9---5--7---5---7--|
|-7---3--5---7---3--5---7---3--5---3---5--|

Verse 2:
|-----------------------------------------7---3--5---7---3--5---7---3--5--3--5-|
|-----------------------------------------7---3--5---7---3--5---7---3--5--3--5-|
|-----------------------------------------7---4--6---7---4--6---7---4--6--4--6-|
|-9---5--7---9---5--7---9---5--7--5---7---9---5--7---9---5--7---9---5--7--5--7-|
|-9---5--7---9---5--7---9---5--7--5---7---9---5--7---9---5--7---9---5--7--5--7-|
|-7---3--5---7---3--5---7---3--5--3---5---7---3--5---7---3--5---7---3--5--3--5-|

Chorus 2: Same as Chorus 1

Bridge:
|------7-------------------7---3---5---5---7---3---5---5---7---3---5---5--|
|------7-------------------7---3---7---5---7---3---7---5---7---3---7---5--|
|------7-----------7-------7---4---7---6---7---4---7---6---7---4---7---6--|
|-9----9---9---5---7---7---9---5---7---7---9---5---7---7---9---5---7---7--|
|-9----9---9---5---5---7---9---5---5---7---9---5---5---7---9---5---5---7--|
|-7----7---7---3---5---5---7---3---5---5---7---3---5---5---7---3---5---5--|

|-------------3---5--|
|-------------3---5--|
|-------------4---6--|
|-5---4---2---5---7--|
|-5---5---2---5---7--|
|-3---2---0---3---5--|

Chorus 3: This is played over the same chords as the other choruses
*Note: I had a hard time hearing this over the rhythm guitar so this may not be
too accurate.*
|---------------------14--------14---------------------------14---15----------|
|----15-15-----17-17--15---15---15--14------15-15-----17-17--15---15---14--14-|
|-14--------14--------14---14-------14---14--------14--------14--------14--15-|
|-----------------------------------------------------------------------------|
|-----------------------------------------------------------------------------|
|-----------------------------------------------------------------------------|

Outro:
|-7---3--5---7---3--5---7---3--5---7--|
|-7---3--5---7---3--5---7---3--5---7--|
|-7---4--6---7---4--6---7---4--6---7--|
|-9---5--7---9---5--7---9---5--7---9--|
|-9---5--7---9---5--7---9---5--7---9--|
|-7---3--5---7---3--5---7---3--5---7--|


OF GREETINGS AND GOODBYES    Printable Text Version

Tabbed by Samhain138

 

*Note: Exact amount of strums, and palm muting not shown*

Intro:
|-----------3---------------------------3----------------|
|-----------3---------------------------3----------------|
|-9---4-5---4---7-------------9---4-5---4---7------------|
|-9---4-5---5---7---5-7---2---9---4-5---5---7---5-7------|
|-7---2-3---5---5---5-7---2---7---2-3---5---5---5-7---9--|
|-7---2-3---3---5---3-5---0---7---2-3---3---5---3-5---0--|

Verse 1:
|------------------------------------------|
|------------------------------------------|
|-12---7--9-------7---9---9-------7---12---|
|-12---7--9---5---7---9---9---5---7---12---|
|-10---5--7---5---5---7---7---5---5---10---|
|---------7---3---5---7---7---3---5---10---|

Chorus 1:
|----------------------------------------------------------------|
|----------------------------------------------------------------|
|-9---5---7---9---9-------7---5---9---5---7---9---9-------7---5--|
|-9---5---7---9---9---5---7---5---9---5---7---9---9---5---7---5--|
|-7---3---5---7---7---5---5---3---7---3---5---7---7---5---5---3--|
|-7---3---5---7---7---3---5---3---7---3---5---7---7---3---5---3--|

Transition:
|---------|
|---------|
|-12---9--|
|-X----9--|
|-10---7--|
|------7--|

Pre-Verse: Same as Intro

Verse 2 Part 1: Lightly palm muted
|------------------------------------------------------------|
|-12--8--10--------12--8--10--13-12--12--8--10--------12--8--|
|------------7--9-------------------------------7--9---------|
|------------------------------------------------------------|
|------------------------------------------------------------|
|------------------------------------------------------------|

Verse 2 Part 2: Same as Verse 1

Chorus 2: Same as Chorus 1

Bridge:
|-----------------------------------------------7----------------------------7-|
|-12--8--10-------------------------------------7----------------------------8-|
|------------7--9--------4----9--9---9-------9--9-----4----9--9---9-------9--9-|
|---------------9----------5--9--9---9--10---9--9-------5--9--9---9--10---9--9-|
|---------------7------3---5--7--7---7--7----7--7---3---5--7--7---7--7----7--7-|
|---------------7----------3--7---------7-------7-------3--7---------7-------7-|

|-------------------|
|-------------------|
|---4----7------12--|
|-----5--7------12--|
|-3---5--5------10--|
|-----3--5----------|

Chorus 3: Same as Chorus 1 but twice as long

This is played over the last bar of the final chorus
|----------------------------------------------------------------------------|
|-12--8--10--------12--8--10--13-12--12--8--10--------12--8--10--13-12-13-12-|
|------------7--9-------------------------------7--9-------------------------|
|----------------------------------------------------------------------------|
|----------------------------------------------------------------------------|
|----------------------------------------------------------------------------|


SMILE     Printable Text Version

Tabbed by Samhain138

 

*Note: Exact amount of strums and palm muting not shown*

Intro:
|-------------------------------------------------------------------------------|
|-------------------------------------------------------------------------------|
|------------------9---------7-----9------7-----9-----------7-----9-------------|
|--------------0---X---------7-----9------7-----9-5--7------7-----9---0-2--0-2--|
|--------------7---7------7--5--7--7---7--5--7--7-5--7---7--5--7--7-------------|
|-(Pick Slide)-0---0------7--5--7--7---7--5--7--7-3--5---7--5--7--7-------------|

|-----------------|
|-----------------|
|-----------------|
|-0-2--0-2--0--2--|
|-----------------|
|-----------------|

Verse 1:
|-----------------------------------------------------------------------|
|-----------------------------------------------------------------------|
|----7-----9------7-----9-----------7-----9-----------------------------|
|----7-----9------7-----9-5--7------7-----9---0-2--0-2--0-2--0-2--0--2--|
|-7--5--7--7---7--5--7--7-5--7---7--5--7--7-----------------------------|
|-7--5--7--7---7--5--7--7-3--5---7--5--7--7-----------------------------|

|------------------------------------------------------|
|------------------------------------------------------|
|----7-----9------7-----9-----------7-----9------------|
|----7-----9------7-----9-5--7------7-----9---8--7--5--|
|-7--5--7--7---7--5--7--7-5--7---7--5--7--7---8--7--5--|
|-7--5--7--7---7--5--7--7-3--5---7--5--7--7---6--5--3--|

Chorus 1:
|-----0-----------------|
|-----0-----------------|
|-----0---10---12---15--|
|-2-------X----X----X---|
|-2-------8----10---13--|
|-0-------0-------------|

Transition:
|----------------------------------------|
|----------------------------------------|
|----7-----9-----------------------------|
|----7-----9---0-2--0-2--0-2--0-2--0--2--|
|-7--5--7--7-----------------------------|
|-7--5--7--7-----------------------------|


Verse 2: Same as second half of Verse 1

Chorus 2:
|-----------------------------0---0-0---0-0-0-0---0-0---0-0-0-0---0-0---0-0-0--|
|-----------------------------5---6-5---6-5-6-5---6-5---6-5-6-5---6-5---6-5-6--|
|-----------7-------10---12----------------------------------------------------|
|-2---5---7-7---8---X----X-----------------------------------------------------|
|-2---5---7-5---8---8----10----------------------------------------------------|
|-0---3---5-5---6---0----------------------------------------------------------|

Transition 2: Same as first half of Verse 1

Verse 3:
|---------------------------------------------|
|---------------------------------------------|
|----7-----9------7-----9-----------7-----9---|
|----7-----9------7-----9-5--7------7-----9---|
|-7--5--7--7---7--5--7--7-5--7---7--5--7--7---|
|-7--5--7--7---7--5--7--7-3--5---7--5--7--7---|

|------------------------------------------------0-0---0-0---0-0-0-0---0-0--|
|------------------------------------------------6-5---6-5---6-5-6-5---6-5--|
|---------------------------------------------------------------------------|
|-0-2--0-2--0-2--0-2--0--2---2------8--7--5---------------------------------|
|----------------------------2------8--7--5---------------------------------|
|----------------------------0------6--5--3---------------------------------|

|-0-0-0-0---0-0---0-0-0-0---0-0--(Keep repeating and fade out)--|
|-6-5-6-5---6-5---6-5-6-5---6-5---------------------------------|
|---------------------------------------------------------------|
|---------------------------------------------------------------|
|---------------------------------------------------------------|
|---------------------------------------------------------------|


A STORY AT THREE    Printable Text Version

Tabbed by Samhain138

 

*Note: Exact amount of strums and palm muting not shown* 

Intro:
|----------------------------------------------4--5--------------------------------|
|----------------------------------------------5--7--------------------------------|
|-13---15-12---7---11-12--9---13---15-12---7----------9---13---15-12---7---12-7--9-|
|-X----X--X----X---X--X---X---X----X--X----X----------X---X----X--X----X---X--X--X-|
|-11---13-10---5---9--10--7---11---13-10---5----------7---11---13-10---5---10-5--7-|
|-0----0--0----0---0--0---0---0----0--0----0----------0---0----0--0----0---0--0--0-|

Verse 1:
|-7--7---------------7--7--------------------------------------|
|-8--7--------7------8--7--------7-----------------------------|
|-9--7--5-----7------9--7--5-----7---8--11--12------------5-7--|
|-9--7--5--5--7---9--9--7--5--5--7---X--X---X----9------5-5-7--|
|-7--5--3--5--5---9--7--5--3--5--5---6--9---10---7------5-3-5--|
|-7--5--3--3--5---7--7--5--3--3--5---------------7------3-3-5--|

Chorus 1:
|----------------------------------------------|
|-------------------------------------------8--|
|-------------------------------------------7--|
|-7---3---5---3--5--7---3---5--3--5--7------5--|
|-7---3---5---3--5--7---3---5--3--5--7------5--|
|-5---1---3---1--3--5---1---3--1--3--5---------|

Verse 2: Same as Verse 1

Chorus 2:
|---------------------------------------------------------------------------|
|---------------------------------------------------------------------------|
|---------------------------------------------------------------------------|
|-7---3---5---3--5--7---3---5--3--5--7---3---5---3--5--7---3---5--3--5--7---|
|-7---3---5---3--5--7---3---5--3--5--7---3---5---3--5--7---3---5--3--5--7---|
|-5---1---3---1--3--5---1---3--1--3--5---1---3---1--3--5---1---3--1--3--5---|

Bridge Part 1: Clean guitar
|------------------|
|------------------|
|------------------|
|---------3--2--0--|
|-3---3-3----------|
|------------------|

Bridge Part 2: Distorted guitar
|--------------3--3----------------3--3----------------3--3----------------3--3-|
|--------------3--3----------------3--3----------------3--3----------------3--3-|
|----7---------5--4------7---------5--4------7---------5--4------7---------5--4-|
|-5--7--7---3--5--5---5--7--7---3--5--5---5--7--7---3--5--5---5--7--7---3--5--5-|
|-5--5--7---3--3--5---5--5--7---3--3--5---5--5--7---3--3--5---5--5--7---3--3--5-|
|-3--5--5---1--3--3---3--5--5---1--3--3---3--5--5---1--3--3---3--5--5---1--3--3-|

|--------------|
|--------------|
|----7------4--|
|-5--7------5--|
|-5--5------5--|
|-3--5------3--|

Chorus 3: Same as Chorus 2
This is played over the second half of the chorus: 
|--------------------------------------------------------------|
|--------------------------------------------------------------|
|--------------------------------------------------------------|
|-----3--2--0-------------3--2--0---------7---5/7---7---7---7--|
|-3-------------3--2--3-------------3--2--7---5/7---7---7---7--|
|-----------------------------------------5---3/5---5---5---5--|

End with this:
|----------------------|
|----------------------|
|----------------------|
|-7---5/7---7---7---7--| 
|-7---5/7---7---7---7--|
|-5---3/5---5---5---5--|


THE DAYS OF THE PHOENIX    Samhain138's Old Version

Tabbed by Jade Puget 

 

Intro: 

|-----5------2-----2-----3------------x---------| |-------3------3-----3-----3----xh2-----2-------| |---4-----4------4-----4-----4--2---2-----2-----| |-----------------------------------------------| |-----------------------------------------------| |-----------------------------------------------| 

 

|-----5--------3------5---------7---------------| |-------3---------3-----3-------x---------------| |---4-----4----4----------4-----4---------------| |-----------------------------------------------| |-----------------------------------------------| |-----------------------------------------------| 

 

|-----------------------------------------------| |-----------------------------------------------| |-----7------------14----14---14--------14------| |--9----11--12--12----12---12----12--12----12---| |-----------------------------------------------| |-----------------------------------------------| 

 

|-----------------------------------------------| |-----------------------------------------------| |---11--12--14----------14------11--12--14------| |---------------12--12------12------------------| |-----------------------------------------------| |-----------------------------------------------| 

 

|-----------------------------------------------| |-----------------------------------------------| |-----------14------12--11----------------------| |---12--12------12----------12--9---------------| |-----------------------------------------------| |-----------------------------------------------| 

 

Chord progression for intro: 

|---7---5---3---5---| 

|---7---7---3---5---| 

|---7---7---4---6---| 

|---9---7---5---7---| 

|---9---5---5---7---| 

|---7---5---3---5---| 

 

Verse: 

|--7--5--7--5--3--7--5----7--5--7--5--3--7--5--2--3--3---| |--7--5--7--7--3--8--5----7--5--7--7--3--8--5--2--3--3---| |--7--6--7--7--4--9--6----7--6--7--7--4--9--6--3--4--4---| |--9--7--9--7--5--9--7----9--7--9--7--5--9--7--4--5--5---| |--9--7--9--5--5--7--7----9--7--9--5--5--7--7--4--5--5---| |--7--5--7--5--3--7--5----7--5--7--5--3--7--5--2--3--3---| 

 

Chorus: Repeat with this final chord |--7------------10----------------10-----------12---------| |--7------------10----------------12-----------14---------| |--7--7---------11--11------------12-----------14---------| |--9-----9------12-------12-------12-----------14---------| |--9--------9---12------------12--10-----------12---------| |--7------------10----------------10-----------12---------| 

 

Break: 1st riff 

|-------------------------------| 

|--------------------------3----| 

|--------x-------------x--------| 

|-----4-----4------4------------| 

|--2------------2---------------| 

|-------------------------------| 

 

2nd riff (distorted) 

|----------------------------3--3--3--2--2--2--x--x-------| |--x--x--x--x--3--3--2--x----x--x--x--x--x--x--x--x-------| |--4--4--4--4--4--4--4--4----4--4--4--4--4--4--4--4-------| |---------------------------------------------------------| |---------------------------------------------------------| |---------------------------------------------------------| 

 

|---------------------------------------------------------| |--2--2--2--3--3--3--5--5--2--2--2--3--3--3--2--2---------| |--x--x--x--x--x--x--x--x--2--2--2--2--2--2--3--3---------| |---------------------------------------------------------| |---------------------------------------------------------| |---------------------------------------------------------| 

 

the final position of this riff, during the second time through is: 

|-------| 

|---2---| 

|---2---| 

|-------| 

|-------| 

|-------| 

 

3rd riff (clean tone underlying above riff) repeat but replace 4th run with: |-------------------------------------------------------------| |-------------------------------------------------------------| |-----------x----------------x--------------------------------| |-------4-------4-------4-------4-------------x---------------| |---2---------------x---------------------5-------5-----------| |-------------------------------------3-----------------------| 

 

|-------------------------------------------------------------| |-------------------------------------------------------------| |-------------------------------------------------------------| |-----------x-------------------4---2-------------------------| |-------4-------4----------1----------------------------------| |---5------------------2--------------------------------------| 

 

Final riff over end: 

|-------------------------------------------------------------| |-------------------------------------------------------------| |------7--------------14------14------14----------14----------| |---9-----11--12--12------12------12------12--12------12------| |-------------------------------------------------------------| |-------------------------------------------------------------| 

 

|-------------------------------------------------------------| |-------------------------------------------------------------| |---12--11--------------14------12--11--------------14--------| |-----------12--12--12------12----------12--12--12------12----| |-------------------------------------------------------------| |-------------------------------------------------------------| 

 

|-------------------------------------------------------------| |-------------------------------------------------------------| |---12--11----------------------------------------------------| |-----------12----11------------------------------------------| |-------------------------------------------------------------| |-------------------------------------------------------------|


WESTER    Printable Text Version

Tabbed by Samhain138


*Note: Exact amount of strums and palm muting not shown*

Intro:
|-3---------------------3-----------------3---------------------3------------------|
|-4--3-4-6--3--4-3-1-3--4--3-4-6----------4--3-4-6--3--4-3-1-3--4--3-4-6-----------|
|-5--3-3-3--3--3-3-3-3--5--3-3-3------8---5--3-3-3--3--3-3-3-3--5--3-3-3------8/10-|
|-5---------3-----------5---------6---8---5---------3-----------5---------6---8/10-|
|-3---------1-----------3---------6---6---3---------1-----------3---------6---6/8--|
|-3---------1-----------3---------4---6---3---------1-----------3---------4---6/8--|

|------------|
|------------|
|-7----------|
|-8------10--|
|-8------10--|
|-6------8---|

Verse 1: Part 1:        Part 2:
|----------------------|---------------------------------------------------------|
|----------------------|-4--------------4--4-3--9-------4------------------------|
|-------------13---7---|-5-------8------5--5-5--8---8---5-------8--------------4-|
|--------10---X----8---|-5---6---8--8---5-------6---8---5---6---8--8---6---5---5-|
|--------8----11---8---|-3---6---6--8---3-----------6---3---6---6--8---6---5---5-|
|-8------8---------6---|-3---4---6--6---3-----------6---3---4---6--6---4---3---3-|

Chorus 1:                                 Chorus 1 End:
|----------------------------------------|---------------------|
|-4-------------------4------------------|-4------------4---3--|
|-5---8---7-------8---5---8---7-------8--|---5----1--3--5---3--|
|-5---8---8---6---8---5---8---8---6---8--|-----5--1--3--5---3--|
|-3---6---8---6---6---3---6---8---6---6--|--------------3---1--|
|-3---6---6---4---6---3---6---6---4---6--|--------------3---1--|

Transition: Same as Intro but half as long

Verse 2: Same as Verse 1, Part 2

Chorus 2: Same as Chorus 1 but twice as long
and end with this:
|--------------3--|
|-4------------4--|
|---5----1--3--5--|
|-----5--1--3--5--|
|--------------3--|
|--------------3--|

Bridge Part 1: Constantly lighter palm muting
Play this 6 times:
|----------------------------|
|----------------------------|
|----------------------------|
|-5--3--6--5-5---6--5--8--8--|
|-3--3--3--3-6---6--6--6--8--|
|-------------------------6--|

Bridge Part 2:
|--------------------------------------------------------|
|-4-----------4-----------4-----------4------------------|
|-5-----8--7--5-----8--7--5-----8--7--5-----8--7---------|
|-5--6--8--8--5--6--8--8--5--6--8--8--5--6--8--8--6---8--|
|-3--6--6--8--3--6--6--8--3--6--6--8--3--6--6--8--6---8--|
|-3--4--6--6--3--4--6--6--3--4--6--6--3--4--6--6--4---6--|

Chorus 3: Same as Chorus 2


6 to 8    Printable Text Version  Samhain138's Previous Tab

Tabbed by Jade

 

*Note: Exact amount of strums and palm muting not shown*

Intro:

|---------------------------------------------------------------------|
|---------------------------------------------------------------------|
|--------------------2------2---4p2---------2-----2---4p2---------2---|
|---9---5---7----------2-------------2---------2-------------2----x---|
|---x---x---x---x------------------------3----------------------------|
|---------------------------------------------------------------------|

Verse:

|-------------------------5---|
|--10---5----8---7--------7---|
|---9---5----7---7--------7---|
|---9---5----7---7--------7---|
|-------------------------5---|
|-------------------------5---|

Chorus:
Repeat, end 2nd phrase with:
|---3---3--------x--------------------------------5-----------------------------------------|
|---5---3--------x--------------------------------5----x------------------------------------|
|---5---4--------x---7(slide)9---7(slide)7--------6----4------------12---11-----------------|
|---5---5---4----2--------------------------------7----5------------------------------------|
|---3---5---5----2---5(slide)7---5(slide)5--------7----2------------10----9-----------------|
|---3---3---2----x---x(slide)x---x(slide)x--------5------------------x----x-----------------|

2nd Verse:

|---------------------------------------------------------------|
|--10---5---8----7----10---12-----5----6----8----8---10-----7---|
|---9---5---7----7-----9----9----5---5---5---7---7----7---------|
|---9---5---7----7-----9----9----5---5---5---7---7----7---------|
|---------------------------------------------------------------|
|---------------------------------------------------------------|

Break:
|--------------------------------------------------------5--------|
|--------------------------------------------------------7--------|
|---2---2-----2--4p2----------2---2-----2--4p2-----------7--------|
|---2------2-------------2----2-------2------------2-----7----4---|
|---x-------------------------3--------------------------5----5---|
|--------------------------------------------------------5----7---|

The end of the song is just the chorus without the stop.

Solo:

|---------------------------------------------------------------------------7-------|
|---12-----------------12-------12--12-12-12-12-12---x--x--x--x------8--------8-----|
|---14fb14--12--14------12--12--12--12-12-12-12--7---7--7--9--9--------9--------9---|
|-----------------------------------------------------------------------------------|
|-----------------------------------------------------------------------------------|
|-----------------------------------------------------------------------------------|

|---------------------------------------x----x---x----x---x---x----x---x---x---x----|
|--------------------------x--x--x--x---10--10--10---12---12--12--12--12---17--17---|
|---9--12--14slide16--12---9--9--9--9--9--------------------------------------------|
|-----------------------------------------------------------------------------------|
|-----------------------------------------------------------------------------------|
|-----------------------------------------------------------------------------------|

|----x---x---x--15--15--15---14--14---15---17---14--14---15-------15-------------15--15---15--|
|---17--17--17--12--12--12---12--12---12---15---15--15---17------------17---17---17--17---17--|
|--------------------------------------------------------------16-----------16---16--16---16--|
|---------------------------------------------------------------------------------------------|
|---------------------------------------------------------------------------------------------|
|---------------------------------------------------------------------------------------------|

|---15--15--15---14---15---|
|---12--12--12---12---12---|
|--------------------------|
|--------------------------|
|--------------------------|
|--------------------------|


THE DESPAIR FACTOR    Printable Text Version

Tabbed by Jade Puget

 

Intro:
|--x---3---5---7---3---5---3---3---5---6---3---x---3---5---7---3---5---3---3---5---5---|
|--x---3---5---8---3---5---3---3---5---6---3---x---3---5---8---3---5---3---3---5---7---|
|--x---4---6---9---4---6---4---4---6---7---4---x---4---6---9---4---6---4---4---6---7---|
|--2---5---7---9---5---7---5---5---7---8---5---2---5---7---9---5---7---5---5---7---7---|
|--2---5---7---7---5---7---5---5---7---8---5---2---5---7---7---5---7---5---5---7---5---|
|--x---3---5---7---3---5---3---3---5---6---3---x---3---5---7---3---5---3---3---5---5---|

|--------------------------------------------x-----7-----------------------------------|
|--------------------------------------------x-----8-----------------------------------|
|--------------------------------------------x-----9-----------------------------------|
|--------------------------------------------2-----9-----------------------------------|
|------------5-----------7------------5------2-----7-----------------------------------|
|---x---3-------x---5-------x---3------------x-----7-----slide down to verse-----------|

Verse:
|---x---7---3------------7---x---7---3--------5-----------------------------|
|---x---8---3------------7---x---8---3--------7-----------------------------|
|---x---9---4---4---7---8---x---9---4---4---7-----------------x-------------|
|---2---9---5---7---4---9---2---9---5---7---7-------------4-------4---------|
|---2---7---5---5---5---9---2---7---5---5---5---------5---------------5-----|
|---x---7---3---3---5---7---x---7---3---3---5-----7-------------------------|

Chorus:
|---3---7---5---|
|---5---8---7---|
|---5---9---7---|
|---5---9---7---|
|---3---7---5---|
|---3---7---5---|

Riff over 2nd half of 2nd chorus:
|-x---x---x----x-x-x----x---x---x----x-x-x----x---x---x---x---x---x----x-x-x----x---x---x-|
|-8---7---5----8-7-5----8---7---5----8-7-5----7---5---3---8---7---5----8-7-5----8---7---5-|
|-----------------------------------------------------------------------------------------|
|-----------------------------------------------------------------------------------------|
|-----------------------------------------------------------------------------------------|
|-----------------------------------------------------------------------------------------|

|---x-x-x----x---x---10---12--------|
|---8-7-5----7---8---10----x--------|
|-----------------------------------|
|-----------------------------------|
|-----------------------------------|
|-----------------------------------|

Break:
|-------x-----------x-----------10------------8------------7----------------------------------|
|-----------8-----------8-------------8------------8----------------8-----------8-------8-----|
|---9-----------9-----------9-------------9------------9-------7-------7---7-------7-------7--|
|---------------------------------------------------------------------------------------------|
|---------------------------------------------------------------------------------------------|
|---------------------------------------------------------------------------------------------|

|---------------------------------------x-----------x-----------10-----------8-----------7----|
|-7----------7-----------7-----------------8-----------8-------------8-----------8------------|
|----7---7-------7---7-------7----9-----------9-----------9-------------9-----------9-------7-|
|---------------------------------------------------------------------------------------------|
|---------------------------------------------------------------------------------------------|
|---------------------------------------------------------------------------------------------|

|------------------------------------------------------------------|
|----8------------8----10-------7------------7----------7----------|
|-------7---7-------7--------7-------7---7-------7--7-------7------|
|------------------------------------------------------------------|
|------------------------------------------------------------------|
|------------------------------------------------------------------|

Riff #2 begins with vocals on 2nd half of clean tone part:
|-----------------------------------------------------------------------------|
|--------8---7---------8--8--8--8--8---10--10--10---7--7--7--7-7--------------|
|---9-------------9----9--9--9--9--9----9---9---9----7--7--7--7-7-------------|
|-----------------------------------------------------------------------------|
|-----------------------------------------------------------------------------|
|-----------------------------------------------------------------------------|


End: This part is kind of tricky, the chords in parentheses are arpeggiated 
(for those of you not familiar with this, it requires strumming through the 
notes individually and quickly in a smooth motion). Also, all the chords 
that are only open strings are played with upstrokes, this is important to 
get the right rhythm and feel of the part.

|---x---x-------------------------------------------------|
|---x---x------------x---x---x---x----(x)---x--------(x)--|
|---x---x---x-------x---x---x---x----(4)--------4---(2)---|
|---2-----------2----4-------5--------(5)-------------(5)-|
|---2-----------------------------------------------------|
|---x-----------------------------------------------------|

|-----------------------3----------------------|

|-x-------x---x----3---------------------------|

|-----2---x---x---4---4---7---9---11-----------|

|-----------5--------5---7---x---x----x--------|

|-----------------------5---5---5---7----9-----|

|-----------------------3---3------------------|

2nd time through is the same but at the end this progression replaces the ascending 

octave chords
|---5----------------------------------------------------|
|---7----------------------------------------------------|
|---7----x-----------------------------------------------|
|---7----4-----then slide down into next phrase----------|
|---5----5-----------------------------------------------|
|---5----------------------------------------------------|

The final time through this progression, end with this chord:
|----7----|
|----7----|
|----8----|
|----9----|
|----9----|
|----7----|

2nd part of End:
|-------------------------------------------------------------|
|-------------------------------------------------------------|
|---x---x---x-------------------------x---x---x---------------|
|---2---2---2----12---12slide11---2---2---2----11--11slide14--|
|---2---2---2-------------------------2---2---2---------------|
|---x---x---x----10---10slide9-----x---x---x----9----9slide12-|

 

|-------------------3------------------|

|-------------------3------------------|

|----------------4----2--2-------------|

|-12-----5---4---7---------------------|

|----------------5----5---5------------|

|---10----3----2---2-------------------|

The only difference in the 4 measure of the end are the changes in the octave 

chord progression, which I'm sure you can hear, and they are:
|---------------------|
|---------------------|
|----7---7slide9------|
|---------------------|
|----5---5slide7------|
|---------------------|


|-----------------------|
|----8---8slide10-------|
|-----------------------|
|-----------------------|
|----7---7slide9--------|
|-----------------------|


MORNINGSTAR    Printable Text Version

Tabbed by Samhain138

 

*Note: Exact number of strums not shown*
The palm muting for this song is not shown but it's quite easy to distinguish.

Intro: Clean guitar
|----------------------------|
|----------------------------|
|----------------------------|
|-9---9---6--------------6---|
|-7---6---4------7---6---7---|
|----------------5---7---9---|

Verse 1: Clean guitar
|------------------------------------------------------------------------|
|------------------------------------------------------------------------|
|------------------------------------------------------------------------|
|-9---9---6--------------6------9---9---6--------------------------------|
|-7---6---4------7---6---7------7---6---4------7---6-----7-----9-----11--|
|----------------5---7---9---------------------5---7---9---9-9---9-9-9---|

Chorus 1: Clean guitar
|-------------------------------------|
|-------------5-------------------5---|
|-------8---6-6---9-----6-----8---6---|
|-4---9-9---6-6---9---7-7---9-9---6---|
|-4---9-9---4-4---7---7-7---9-9---4---|
|-2---7-7-------------5-5---7-7-------|

Verse 2: Same as Verse 1

Chorus 2: Clean guitar
|----------------------------------------------------------------------------|
|-------------5--------------------------------------------------5-----------|
|-------8---6-6---9-----6-----8---9--9--14-13-11-9---------8---6-6---9-----6-|
|-4---9-9---6-6---9---7-7---9-9---11-13-11-11-11-11--4---9-9---6-6---9---7-7-|
|-4---9-9---4-4---7---7-7---9-9---11-11-11-11-11-11--4---9-9---4-4---7---7-7-|
|-2---7-7-------------5-5---7-7---9--9--9--9--9--9---2---7-7-------------5-5-|

|-----------|
|-----------|
|----8---6--|
|--9-9---6--|
|--9-9---4--|
|--7-7------|

Bridge: Clean guitar
|----------------------------------------------------------------|
|----------------------------------------------------------------|
|-------------------------------------6---4---2-------6---4---2--|
|-6---4---2-------6---4---2---2---4---6---4---2---4---6---4---2--|
|-4---2---0---4---4---2---0---4---4---4---2---0---4---4---2---0--|
|-------------2-----------------------------------2--------------|

Chorus 3: Distorted guitar
|---------------------------------------------------------------------------------|
|---------------------------------------------------------------------------------|
|-9---4---6--------------6---9-----------9--9--14-13-11-9-------6---6-------------|
|-9---4---6------4---9---6---9---7---9---11-13-11-11-11-11--4---9---6---9---7---9-|
|-7---2---4------4---9---4---7---7---9---11-11-11-11-11-11--4---9---4---7---7---9-|
|-7--------------2---7-------7---5---7---9--9--9--9--9--9---2---7-------7---5---7-|

|----|
|----|
|-6--|
|-6--|
|-4--|
|----|


DREAM OF WAKING    Printable Text Version

Tabbed by Jade Puget

 

Intro: This has an anticipated rhythm
|---------------------------------------------|
|---------------------------------------------|
|---------------------------------------------|
|--9--9--10----12--13---9---9--10---12---15---|
|--7--8--8-----10--10---7---8--8----10---13---|
|--x--x--x-----x---x----x---x--x----x-----x---|

Pre-verse:
|-------------------------------------------------------------------------|
|-------------------------------------------------------------------------|
|------------------------------------------------------------------7------|
|----------9--9--------7--7------9------------9--9-------7--7-------------|
|--7--7--7------10--10------9--9--10--7--7--7------10--10-----9--9--------|
|--------------------------------------------------------------------10---|

|--------------------------------------------------------------|
|--------------------------------------------------------------|
|--------------------------------------------x---x---x----7----|
|-----------9--9---------7--7--------9------10--12---9----7----|
|--7--7--7-------10--10--------9--9-----10--10--10--10----5----|
|---------------------------------------------------------5----|

Verse:
|---------------------5-------------------------------------------------------7----|
|---------------------7-------------------------------------------------------8----|
|--9---------9--------7---9----------repeat previous phrase and---------------9----|
|-----9---------9-----7------9-------end verse building up on this------------9----|
|--7----10---7----10--5---7----10---------------chord-------------------------7----|
|--x-----x---x----x---5---x-----x---------------------------------------------x----|

Bridge:
|--7---3---3---7---3---3---7---3---5---7-------------------x--|
|--8---5---3---8---5---7---8---3---7---7-------------------5--|
|--9---5---4---9---5---7---9---4---7---8----------------------|
|--9---5---5---9---5---7---9---5---7---9----------------------|
|--7---3---5---7---3---5---7---5---5---9---7--9--10--13-------|
|--7---3---3---7---3---5---7---3---5---7---x--x--x---x--------|

Chorus: repeat 1st measure and 
end chorus on this:
|-------------------3---5--------------------3---5--------------------------6----|
|-------------------3---7--------------------3---7--------------------------6----|
|--9--11--12--14----4---7---9---11-12--14----4---7--14---12---11---9--------7----|
|-------------------5---7--------------------5---7--------------------------8----|
|--7---9--10---12---5---5---7---9--10--12----5---5--12---10----9---7--------8----|
|--x---x---x----x---3---5---x---x---x---x----3---5---x----x----x---x--------6----|

verse2 is the same as the first except for the harmonics, which are A--7-- and D--9--
A--7-
Chorus2 is the same

Pre-breakdown: these are sustained chords
|--x---x---3---6--|
|--x---8---3---6--|
|--x---9---4---7--|
|--2---9---5---8--|
|--2---7---5---8--|
|--x---x---3---6--|

Breakdown 1st half:
|--x--------5h--7h-----------x-------------x--------5h--7h-------x------------------|
|--x---5h------------7h------x-------------x---5h----------------x------------------|
|--x-------------------------x------4------x----------------7h---x----7---------9---|
|--2-------------------------2---2-----5---2---------------------2-------slide------|
|--2-------------------------2-------------2---------------------2----5--(4x)---7---|
|--x-------------------------x-------------x---------------------x----x---------x---|

breakdown 2nd half: repeat previous phrases and then
end with these chords:
|--x----------x---3---x---x-------------10----10--------10---10---10---12---13---x---|
|--x----------x---3---x---x-------------12----10--------12---10---12---14---15---x---|
|--x---7--9---x---4---x---x---7-----9---12----11--------12---11---12---14---15---x---|
|--2---slide--2---5---2---2------sl.----12----12--------12---12---12---14---15---2---|
|--2---5--7---2---5---2---2---5-----7---10----12--------10---12---10---12---13---2---|
|--x---x--x---x---3---x---x---x-----x---10----10--------10---10---10---12---13---x---|


                                                                      Website Design by Samhain138

                                                                                                                 Copyrights

                                                                                         http:// thevalleyofdreams.tripod.com/