Make your own free website on Tripod.com

[The Days Of The Phoenix EP]

 

The Days Of The Phoenix

A Winter's Tale

Wester

 


THE DAYS OF THE PHOENIX    Samhain138's Old Version

Tabbed by Jade Puget

 

Intro:

|-----5------2-----2-----3------------x---------| |-------3------3-----3-----3----xh2-----2-------| |---4-----4------4-----4-----4--2---2-----2-----| |-----------------------------------------------| |-----------------------------------------------| |-----------------------------------------------|

 

|-----5--------3------5---------7---------------| |-------3---------3-----3-------x---------------| |---4-----4----4----------4-----4---------------| |-----------------------------------------------| |-----------------------------------------------| |-----------------------------------------------|

 

|-----------------------------------------------| |-----------------------------------------------| |-----7------------14----14---14--------14------| |--9----11--12--12----12---12----12--12----12---| |-----------------------------------------------| |-----------------------------------------------|

 

|-----------------------------------------------| |-----------------------------------------------| |---11--12--14----------14------11--12--14------| |---------------12--12------12------------------| |-----------------------------------------------| |-----------------------------------------------|

 

|-----------------------------------------------| |-----------------------------------------------| |-----------14------12--11----------------------| |---12--12------12----------12--9---------------| |-----------------------------------------------| |-----------------------------------------------|

 

Chord progression for intro:

|---7---5---3---5---|

|---7---7---3---5---|

|---7---7---4---6---|

|---9---7---5---7---|

|---9---5---5---7---|

|---7---5---3---5---|

 

Verse:

|--7--5--7--5--3--7--5----7--5--7--5--3--7--5--2--3--3---| |--7--5--7--7--3--8--5----7--5--7--7--3--8--5--2--3--3---| |--7--6--7--7--4--9--6----7--6--7--7--4--9--6--3--4--4---| |--9--7--9--7--5--9--7----9--7--9--7--5--9--7--4--5--5---| |--9--7--9--5--5--7--7----9--7--9--5--5--7--7--4--5--5---| |--7--5--7--5--3--7--5----7--5--7--5--3--7--5--2--3--3---|

 

Chorus: Repeat with this final chord |--7------------10----------------10-----------12---------| |--7------------10----------------12-----------14---------| |--7--7---------11--11------------12-----------14---------| |--9-----9------12-------12-------12-----------14---------| |--9--------9---12------------12--10-----------12---------| |--7------------10----------------10-----------12---------|

 

Break: 1st riff

|-------------------------------|

|--------------------------3----|

|--------x-------------x--------|

|-----4-----4------4------------|

|--2------------2---------------|

|-------------------------------|

 

2nd riff (distorted)

|----------------------------3--3--3--2--2--2--x--x-------| |--x--x--x--x--3--3--2--x----x--x--x--x--x--x--x--x-------| |--4--4--4--4--4--4--4--4----4--4--4--4--4--4--4--4-------| |---------------------------------------------------------| |---------------------------------------------------------| |---------------------------------------------------------|

 

|---------------------------------------------------------| |--2--2--2--3--3--3--5--5--2--2--2--3--3--3--2--2---------| |--x--x--x--x--x--x--x--x--2--2--2--2--2--2--3--3---------| |---------------------------------------------------------| |---------------------------------------------------------| |---------------------------------------------------------|

 

the final position of this riff, during the second time through is:

|-------|

|---2---|

|---2---|

|-------|

|-------|

|-------|

 

3rd riff (clean tone underlying above riff) repeat but replace 4th run with: |-------------------------------------------------------------| |-------------------------------------------------------------| |-----------x----------------x--------------------------------| |-------4-------4-------4-------4-------------x---------------| |---2---------------x---------------------5-------5-----------| |-------------------------------------3-----------------------|

 

|-------------------------------------------------------------| |-------------------------------------------------------------| |-------------------------------------------------------------| |-----------x-------------------4---2-------------------------| |-------4-------4----------1----------------------------------| |---5------------------2--------------------------------------|

 

Final riff over end:

|-------------------------------------------------------------| |-------------------------------------------------------------| |------7--------------14------14------14----------14----------| |---9-----11--12--12------12------12------12--12------12------| |-------------------------------------------------------------| |-------------------------------------------------------------|

 

|-------------------------------------------------------------| |-------------------------------------------------------------| |---12--11--------------14------12--11--------------14--------| |-----------12--12--12------12----------12--12--12------12----| |-------------------------------------------------------------| |-------------------------------------------------------------|

 

|-------------------------------------------------------------| |-------------------------------------------------------------| |---12--11----------------------------------------------------| |-----------12----11------------------------------------------| |-------------------------------------------------------------| |-------------------------------------------------------------|


A WINTER'S TALE    Printable Text Version

Tabbed by Samhain138

 

*Note: Exact amount of strums not shown*

Intro:
|-5---3---8----6---8-------5---3---8----6--------------------------|
|-6---5---10---6---8-------6---5---10---6--------------------------|
|-7---5---10---7---9-------7---5---10---7-----------------------10-|
|-7---5---10---8---10------7---5---10---8-----------------------0--|
|-5---3---8----8---10------5---3---8----8---7--8-10---7--8-10------|
|-5---3---8----6---8-------5---3---8----6---8--8-8----8--8-8-------|

|-----------------------------------------------6-8---5------------------|
|-----10--11------------------------------------6-6---6-------8-------11-|
|-9---10--10---9---10-12---9---10-12-/-14---10------------7---9-------9--|
|-0------------10--10-10---10--10-------------------------0---10------10-|
|---------------------------------10-/-12---8----------------------------|
|------------------------------------------------------------------------|

Verse 1: (-Palm Mute-)
|-5---6---8----8----5---6---8----------------8----5---6---8---8----5---6--|
|-6-6-6---10---8----6-6-6---10---------------8----6---6---10--8----6---6--|
|-7-7-7---10---9----7-7-7---10---------------9----7---7---10--9----7---7--|
|-7---8---10---10---7---8---10---10-10-10-10-10---7---8---10--10---7---8--|
|-5---8---8----10---5---8---8----10-10-10-10-10---5---8---8---10---5---8--|
|-5---6---8----8----5---6---8----8--8--8--8--8----5---6---8---8----5---6--|

(-Palm Mute-)
|-8----8----6------------------------|
|-10---8----6------------------------|
|-10---9----7-----------------7-9----|
|-10---10---8-------------5---7-7----|
|-8----10---8---5---7--8--5---5-5----|
|-8----8----6---5---5--5--5----------|

Chorus 1:
|-8----3---5------8----3---6---------8----3---5---6------|
|-10---5---6------10---5---6---------10---5---6---6------|
|-10---5---7------10---5---7---7-5---10---5---7---7------|
|-10---5---7------10---5---8---7-5---10---5---7---8---7--|
|-8----3---5------8----3---8---5-3---8----3---5---8---7--|
|-8----3---5------8----3---6---------8----3---5---6---5--|

Pre-Verse:
|-5---3---8----6------------------------5---3---8----6---8---|
|-6---5---10---6------------------------6---5---10---6---8---|
|-7---5---10---7------------------------7---5---10---7---9---|
|-7---5---10---8------------------------7---5---10---8---10--|
|-5---3---8----8---7--8-10---7--8-10----5---3---8----8---10--|
|-5---3---8----6---8--8-8----8--8-8-----5---3---8----6---8---|

Verse 2: Same as Verse 1 except the end goes like this:
|-----------------------|
|-----------------------|
|---------------7--9----|
|-----------5---7--7----|
|-5---7--8--5---5--5----|
|-5---5--5--5-----------|

Chorus 2: Same as Chorus 1

Bridge:
(-Clean Guitar---------)
|-10-----13------8------10----------------------------------------------|
|-10-----13------6------10--6---------------6---6---6-8-6---------------|
|-7------10------5------7---7-10---10-5---5-7---7---------10---9-10-9-5-|
|---------------------------7-10---10-5---5-7---7---------10----------5-|
|---------------------------5-8----8--3---3-5---5---------8-----------3-|
|-----------------------------------------------------------------------|

|-----------|
|--3-5-6----|
|--------7--|
|--------7--|
|--------5--|
|-----------|

Chorus 3: Same as other choruses except repeated twice 
with this between them:
(-Palm Mute-----)
|------------------|
|------------------|
|------------------|
|-7-7-7-7-7-7-7-7--|
|-7-7-7-7-7-7-7-7--|
|-5-5-5-5-5-5-5-5--|

Final Chord:
|-5--|
|-6--|
|-7--|
|-7--|
|-5--|
|-5--|


WESTER    Printable Text Version

Tabbed by Samhain138


*Note: Exact amount of strums and palm muting not shown*

Intro:
|-3---------------------3-----------------3---------------------3------------------|
|-4--3-4-6--3--4-3-1-3--4--3-4-6----------4--3-4-6--3--4-3-1-3--4--3-4-6-----------|
|-5--3-3-3--3--3-3-3-3--5--3-3-3------8---5--3-3-3--3--3-3-3-3--5--3-3-3------8/10-|
|-5---------3-----------5---------6---8---5---------3-----------5---------6---8/10-|
|-3---------1-----------3---------6---6---3---------1-----------3---------6---6/8--|
|-3---------1-----------3---------4---6---3---------1-----------3---------4---6/8--|

|------------|
|------------|
|-7----------|
|-8------10--|
|-8------10--|
|-6------8---|

Verse 1: Part 1: Part 2:
|----------------------|---------------------------------------------------------|
|----------------------|-4--------------4--4-3--9-------4------------------------|
|-------------13---7---|-5-------8------5--5-5--8---8---5-------8--------------4-|
|--------10---X----8---|-5---6---8--8---5-------6---8---5---6---8--8---6---5---5-|
|--------8----11---8---|-3---6---6--8---3-----------6---3---6---6--8---6---5---5-|
|-8------8---------6---|-3---4---6--6---3-----------6---3---4---6--6---4---3---3-|

Chorus 1: Chorus 1 End:
|----------------------------------------|---------------------|
|-4-------------------4------------------|-4------------4---3--|
|-5---8---7-------8---5---8---7-------8--|---5----1--3--5---3--|
|-5---8---8---6---8---5---8---8---6---8--|-----5--1--3--5---3--|
|-3---6---8---6---6---3---6---8---6---6--|--------------3---1--|
|-3---6---6---4---6---3---6---6---4---6--|--------------3---1--|

Transition: Same as Intro but half as long

Verse 2: Same as Verse 1, Part 2

Chorus 2: Same as Chorus 1 but twice as long
and end with this:
|--------------3--|
|-4------------4--|
|---5----1--3--5--|
|-----5--1--3--5--|
|--------------3--|
|--------------3--|

Bridge Part 1: Constantly lighter palm muting
Play this 6 times:
|----------------------------|
|----------------------------|
|----------------------------|
|-5--3--6--5-5---6--5--8--8--|
|-3--3--3--3-6---6--6--6--8--|
|-------------------------6--|

Bridge Part 2:
|--------------------------------------------------------|
|-4-----------4-----------4-----------4------------------|
|-5-----8--7--5-----8--7--5-----8--7--5-----8--7---------|
|-5--6--8--8--5--6--8--8--5--6--8--8--5--6--8--8--6---8--|
|-3--6--6--8--3--6--6--8--3--6--6--8--3--6--6--8--6---8--|
|-3--4--6--6--3--4--6--6--3--4--6--6--3--4--6--6--4---6--|

Chorus 3: Same as Chorus 2


                                                                      Website Design by Samhain138

                                                                                                                 Copyrights

                                                                                         http:// thevalleyofdreams.tripod.com/