Make your own free website on Tripod.com

[Tiger Army I]

 

Prelude: Nightfall

Nocturnal

Fog Surrounds

True Romance

Devil Girl

Never Die

Moonlite Dreams

Trance

Twenty Flight Rock

WereCat

Outlaw Heart

Neobamboom

Last Night

 


PRELUDE: NIGHTFALL    Printable Text Version

Tabbed by Samhain138

 

*Note: Exact amount of strums and palm muting not shown*

Intro: Clean guitar
|-9------------------9----9---------------|
|-10-----------------10-----10------------|
|-11------10\9-------11--------11--10\9---|
|-11------11\10------11------------11\10--|
|-9-------11\10------9-------------11\10--|
|---------9-\8---------------------9-\8---|

Fig. 1: Played twice
|-9----12---9----9---------------------------------------------------------|
|-10---10---12---10---8---11---8---11--8----11---8---11---8---11--8----11--|
|-11---9----9----11---9---9----9---9---9----9----9---9----9---9---9----9---|
|-11---11---11---11---10--10---10--10--10---10---10--10---10--10--10---10--|
|-9----9----9----9---------------------------------------------------------|
|--------------------------------------------------------------------------|

Fig. 2: 
|----------------------------------------------------------|
|----------------------------------------------------------|
|-8-9--8-9-8--9---9--11--9--12-11-9----8-9--8-9-8--9---9---|
|-9-9--9-9-9--9---10-10--10-10-10-10---9-9--9-9-9--9---10--|
|-9-9--9-9-9--9---10-10--10-10-10-10---9-9--9-9-9--9---10--|
|----------------------------------------------------------|

|---------------------------------------------------------------|
|---------------------------------------------------------------|
|-8-9--8-9-8--9---9--11--9--12-11-9----8-9--8-9-8--9---9----11--|
|-9-9--9-9-9--9---10-10--10-10-10-10---9-9--9-9-9--9---10---12--|
|-9-9--9-9-9--9---10-10--10-10-10-10---9-9--9-9-9--9---10---12--|
|------------------------------------------------------8----10--|

Figures 1 and 2 repeated

Outro:
|-9----9----9----9---|
|-10---10---10---10--|
|-11---11---11---11--|
|-11---11---11---11--|
|-9----9----9----9---|
|--------------------|


NOCTURNAL    Printable Text Version

Tabbed by Samhain138

 

*Note: Exact amount of strums not shown, palm muting not shown and
tremblo not shown*

Intro:
|-9-------------9-------------9-------------9-------------4---|
|-10------------10------------10------------10------------5---|
|-11---11---8---11---11---8---11---11---8---11---11---8---6---|
|-11---12---9---11---12---9---11---12---9---11---12---9---6---|
|-9----12---9---9----12---9---9----12---9---9----12---9---4---|
|------10---7--------10---7--------10---7--------10---7-------|

Intro Riff:
|------------------------------------------------------------------------|
|------------------------------------------------------------------------|
|--------------7-6-------------------------------------------7-9-7-6h7p6-|
|---6-7-9-7-6------9-7h9p7----------6--------6----6-7-9-7-6--------------|
|-9-------------------------9-9-9-9---9-7-7--7--9------------------------|
|------------------------------------------------------------------------|

|----------------------|
|----------------------|
|-------------6--------|
|-------6-6-7-7--------|
|-9-9-9----------------|
|-----------------12\--|

Verse 1:
|-9-------------9------------9------------------9-------------------|
|-10------------10-----------10-----------------10------------------|
|-11---11---8---11---6---8---11---11---8---11---11-9---/9---/9---9--|
|-11---12---9---11---7---9---11---12---9---12---11-9---/9---/9---9--|
|-9----12---9---9----7---9---9----12---9---12---9--7---/7---/7---7--|
|------10---7--------5---7--------10---7---10-----------------------|

Chorus 1:
|---------------------------------------------------------|
|------------10--------------10--------------10-----------|
|-8---6--8---11---8---6--4---11---8---6--8---11---11---9--|
|-9---7--9---11---9---7--5---11---9---7--9---11---12---9--|
|-9---7--9---9----9---7--5---9----9---7--9---9----12---7--|
|-7---5--7--------7---5--3--------7---5--7--------10------|

Transition: Same chords as Intro

Verse 2: Single strokes with tremblo
|-------9-------------9--------------9------------------9-------------------|
|-------10------------10---------7---10-----------------10------------------|
|-------11---11---8---11---6---8---8-11---11---8---11---11-9---/9---/9---9--|
|-------11---12---9---11---7---9-----11---12---9---12---11-9---/9---/9---9--|
|-------9----12---9---9----7---9-----9----12---9---12---9--7---/7---/7---7--|
|-12/--------10---7--------5---7----------10---7---10-----------------------|

Chorus 2: Same as Chorus 1 but twice as long

End:
|-4/-14--16--17--16--17--19--17--19--14--16--17--16--17--19--17--19--14--16--17-|
|-4/-14--14--14--14--17--17--17--17--14--14--14--14--17--17--17--17--14--14--14-|
|-------------------------------------------------------------------------------|
|-------------------------------------------------------------------------------|
|-------------------------------------------------------------------------------|
|-------------------------------------------------------------------------------|

|-16--17--19--17--19--14--16--17--16--17--19--17--19--16--17--16--17--15--17-|
|-14--17--17--17--17--14--14--14--14--17--17--17--17--16--16--16--16--15--15-|
|----------------------------------------------------------------------------|
|----------------------------------------------------------------------------|
|----------------------------------------------------------------------------|
|----------------------------------------------------------------------------|

|-15--17--14--16--17--16--17--19--17--19--14-----9-\--|
|-15--15--14--14--14--14--17--17--17--17--14-----10\--|
|------------------------------------------------11\--|
|------------------------------------------------11\--|
|------------------------------------------------9-\--|
|-----------------------------------------------------|


FOG SURROUNDS    Printable Text Version

Tabbed by Samhain138

 

*Note: Exact amount of strums, palm muting and tremblo not shown*

Intro:
|-9----9----6------6--------------|
|-11---9----6--------6-----6------|
|-11---10---6----------6-----6----|
|-11---11---8------------8-----8--|
|-9----11---8---------------------|
|-9----9----6---------------------|

Verse 1:
|-6---7---/7---6---9---7--9---7---6---7---/7---6---9---7--9---7--9---7--6--X--6--|
|-7---7---/7---7---9---7--9---7---7---7---/7---7---9---7--9---7--9---7--6--X--6--|
|-8---8---/8---8---10--8--10--8---8---8---/8---8---10--8--10--8--10--8--6--X--6--|
|-8---9---/9---8---11--9--11--9---8---9---/9---8---11--9--11--9--11--9--8--X--8--|
|-6---9---/9---6---11--9--11--9---6---9---/9---6---11--9--11--9--11--9--8--X--8--|
|-----7---/7-------9---7--9---7-------7---/7-------9---7--9---7--9---7--6--X--6--|

Chorus 1:
|-9----9----6---/6---9----9----6--------------9----9----6---/6---9----9----4---6-|
|-11---9----6---/6---11---9----6---6--6--11---11---9----6---/6---11---9----4---7-|
|-11---10---6---/6---11---10---6---6--8--10---11---10---6---/6---11---10---5---8-|
|-11---11---8---/8---11---11---8---8--8--8----11---11---8---/8---11---11---6---8-|
|-9----11---8---/8---9----11---8--------------9----11---8---/8---9----11---6---6-|
|-9----9----6---/6---9----9----6--------------9----9----6---/6---9----9----4-----|

|-6--|
|-6--|
|-6--|
|-8--|
|-8--|
|-6--|

Verse 2: Same as Verse 1

Bridge:
|-11---13---14-13-11-14-13-11--11---13---14-13-11------11---13---14-13-11-14--|
|-11---11---11-11-11-11-11-11--12---12---12-12-12-11---11---11---11-11-11-11--|
|-----------------------------------------------------------------------------|
|-----------------------------------------------------------------------------|
|-----------------------------------------------------------------------------|
|-----------------------------------------------------------------------------|

|-13-11--11---13---14-13-11----11---11---9----11-------11---------11---17--|
|-11-11--12---12------------12-12---11---10---11---10-----10-10---11---16--|
|----------------------------------------11--------------------------------|
|--------------------------------------------------------------------------|
|--------------------------------------------------------------------------|
|--------------------------------------------------------------------------|

|-11---14------11---13--|
|-11-------11-------11--|
|-----------------------|
|-----------------------|
|-----------------------|
|-----------------------|

Chorus 2: Same as Chorus 1

Final Verse:
|-9----9----9----6---/6---9----9----4---6---6------6--|
|-9----11---9----6---/6---11---9----4---6---7------6--|
|-10---11---10---6---/6---11---10---5---6---8------6--|
|-11---11---11---8---/8---11---11---6---8---8------8--|
|-11---9----11---8---/8---9----11---6---8---6------8--|
|-9----9----9----6---/6---9----9----4---6----------6--|


TRUE ROMANCE    Printable Text Version

Tabbed by Samhain138

 

*Note: Exact number of strums not shown*

Intro: First chord clean
|--2----------------------------------------------|
|--3----------------------------------------------|
|--4----------------------------------------------|
|--4----4----2-5---4----2-5---4----2-5---4----2-5-|
|--2----2----2-2---2----2-2---2----2-2---2----2-2-|
|-------------------------------------------------|

Verse 1: 
|------------------------------------------------------------------------------|
|------------------------------------------------------------------------------|
|---------------------------------------------7--------------------------------|
|-4----2-5---4----2-5---4----2-5---4----2-5---7---4----2-5---4----2-5---4----2-|
|-2----2-2---2----2-2---2----2-2---2----2-2---5---2----2-2---2----2-2---2----2-|
|------------------------------------------------------------------------------|

|-----------------------------------------------------------------|
|-----------------------------------------------------------------|
|-----------------------------------------------------------7-----|
|5---4----2-5---4----2-5---4----2-5---4----2-5---4----2-5---7---4-|
|2---2----2-2---2----2-2---2----2-2---2----2-2---2----2-2---5---2-|
|-----------------------------------------------------------------|

|----------------------------------------|
|----------------------------------------|
|----------------------------------------|
|---2-5---4----2-5---4----2-5---4----2-5-|
|---2-2---2----2-2---2----2-2---2----2-2-|
|----------------------------------------|

Pre-Chorus:
|------------------------|
|------------------------|
|--6---7-6---6---7-6---4-|
|--7---7-7---7---7-7---5-|
|------------------------|
|------------------------|

Chorus 1:
|----------------------------------------------------------------|
|----------------------------------------------------------------|
|--4-------7-------4-------7-------4-------7-------4-------7-----|
|--4---5---7---7---4---5---7---7---4---5---7---7---4---5---7---7-|
|--2---5---5---7---2---5---5---7---2---5---5---7---2---5---5---7-|
|------3-------5-------3-------5-------3-------5-------3-------5-|

Pre-Verse:
|--------------------------------------------|
|--------------------------------------------|
|--------------------------------------------|
|--4----2-5---4----2-5---4----2-5---4----2-5-|
|--2----2-2---2----2-2---2----2-2---2----2-2-|
|--------------------------------------------|

Verse 2:
|-----------------------------------------------------------------------------|
|-----------------------------------------------------------------------------|
|----------------------------------------------7------------------------------|
|--4----2-5---4----2-5---4----2-5---4----2-5---7---4----2-5---4----2-5---4----|
|--2----2-2---2----2-2---2----2-2---2----2-2---5---2----2-2---2----2-2---2----|
|-----------------------------------------------------------------------------|

|-------------------------------------------------------------------------|
|-------------------------------------------------------------------------|
|-------------------------------------------------------------7----9--10--|
|2-5---4----2-5----4---2-5---4----2-5---4----2-5---4----2-5---7----9--10--|
|2-2---2----2-2----2---2-2---2----2-2---2----2-2---2----2-2---5----7--8---|
|-------------------------------------------------------------------------|

|-------------------------------------------|
|-------------------------------------------|
|-------------------------------------------|
|-4----2-5---4----2-5---4----2-5---4----2-5-|
|-2----2-2---2----2-2---2----2-2---2----2-2-|
|-------------------------------------------|

Pre-Chorus:
|------------------------|
|------------------------|
|--6---7-6---6---7-6---4-|
|--7---7-7---7---7-7---5-|
|------------------------|
|------------------------|

Chorus 2:
|-----------------------------------------------------------------2-|
|-----------------------------------------------------------------3-|
|--7-------9-------7-------9-------7-------9------------------5---4-|
|--7---7---9---9---7---7---9---9---7---7---9---9---5------7---5---4-|
|--5---7---7---9---5---7---7---9---5---7---7---9---5------7---3---2-|
|------5-------7-------5-------7-------5-------7---3------5---------|


DEVIL GIRL    Printable Text Version

Tabbed by Samhain138

 

*Note: Exact amount of strums, palm muting and tremblo not shown*

Part 1:
|-5------10---/5---7------------------5---10---5---/5---7-------|
|-5------10---/5---9---10-------------5---10---5---/5---9-------|
|-6------11---/6---9---9---9--11--9---6---11---6---/6---9-------|
|-7------12---/7---9---9---9--9---9---7---12---7---/7---9---9\--|
|-7------12---/7---7---7---7--7---7---7---12---7---/7---7-------|
|-5------10---/5----------------------5---10---5---/5-----------|

Part 2:
|-2---5---5---/7------------------2---5---5---7---------------|
|-2---7---5---/9---10-------------2---7---5---9---------------|
|-2---7---6---/9---9---9--11--9---2---7---6---9---9--7--6--4--|
|-4---7---7---/9---9---9--9---9---4---7---7---9---9--7--6--4--|
|-4---5---7---/7---7---7--7---7---4---5---7---7---7--5--4--2--|
|-2-------5-----------------------2-------5-------------------|

Part 3: Similar to Part 1

Part 4: Same as Part 2

Solo:
|-5----5------------------------------------------------------------------/8-|
|-5----5----5--5---5-5-----------5----------7---10--8---10-------10-------/7-|
|-7^9--7^9--6--7---6-7---6---6-7---6h7p6----7---7---7---9---7----9---7----/7-|
|--------------------------7-------------7--7-----------7-----7--7-----7-----|
|----------------------------------------------------------------------------|
|----------------------------------------------------------------------------|

|------------------------------|
|-10-------10-10-------9-------|
|-9---7----9--9---7----9-------|
|-7-----7--7--7-----7--9---7\--|
|------------------------------|
|------------------------------|

Final Part with outro:
|-2---5---5---7-----------------2------5------5--5--5--5---10--10--10--10---5--|
|-2---7---5---9---10------------2------7------5--5--5--5---10--10--10--10---5--|
|-2---7---6---9---9---9--11--9--2------7------6--6--6--6---11--11--11--11---6--|
|-4---7---7---9---9---9--9---9--4------7------7-----7------12------12-------7--|
|-4---5---7---7---7---7--7---7--4------5------7-----7------12------12-------7--|
|-2-------5---------------------2-------------5-----5------10------10-------5--|

|-----------2--|
|-----------2--|
|-9--7--6---2--|
|-9--7--6---4--|
|-7--5--4---4--|
|-----------2--|


NEVER DIE     Printable Text Version

Tabbed by Samhain138

 

*Note: Exact amount of strums, palm muting and tremblo not shown*

Verse 1:
|-10---5--------10---7---10---5--------10---7--|
|-10---5--------12---7---10---5--------12---7--|
|-11---6---9-11-12---7---11---6---9-11-12---7--|
|-12---7---9-11-12---9---12---7---9-11-12---9--|
|-12---7---7-9--10---9---12---7---7-9--10---9--|
|-10---5-------------7---10---5-------------7--|

Transition 1:
|------------------------------------|
|------------------------------------|
|------------------------------------|
|-7---10---8---12---7---10---8---12--|
|-7---10---8---12---7---10---8---12--|
|-5---8----6---10---5---8----6---10--|

Verse 2: Same as Verse 1

Transition 2: Same as Transition 1 but twice as long, second half palm muted

Interlude: Clean
|-10---10-10-10---5--------10---10--7--------------10---10-10-10---5--------10--|
|-10---10-10-10---5--------12---12----7---7--------10---10-10-10---5--------12--|
|-11---11-11-11---6---9-11-12---12------7---7------11---11-11-11---6---9-11-12--|
|-12---12-12-12---7---9-11-12---12------------9----12---12-12-12---7---9-11-12--|
|-12---12-12-12---7---7-9--10---10--------------9--12---12-12-12---7---7-9--10--|
|-10---10-10-10---5--------------------------------10---10-10-10---5------------|

|-10---------------|
|-12---------------|
|-12---7-----9--7--|
|-12---7--7--9--7--|
|-10---5--7--7--5--|
|---------5--------|

Verse 3: Played twice, second half palm muted
|-10---5---7---7---10---5---7---7--|
|-10---5---8---7---10---5---8---7--|
|-11---6---9---7---11---6---9---7--|
|-12---7---9---9---12---7---9---9--|
|-12---7---7---9---12---7---7---9--|
|-10---5-------7---10---5-------7--|

Transition 3: Same as Transition 1 but played 4 times, last 2 bars palm muted

Pre-Verse: Played twice
|------------8-------------------8-------|
|------------9-------------------9-------|
|-9---10-9---10---7---9---10-9---10---7--|
|-9---10-9---10---7---9---10-9---10---7--|
|-7---8--7---8----5---7---8--7---8----5--|
|----------------------------------------|

New-Verse:
|-7------7---8--7---10---10--10---10----------------------7---7---------------|
|-8------8---9--8---12---13--12---10----------------------7---8---------------|
|-9------9---10-9---12---12--12---11---11-12-11-14-12-11--7---9--9-11-9-12-11-|
|-9------9---10-9---12---12--12---12---12-12-12-12-12-12--9---9--9-9--9-9--9--|
|-7------7---8--7---10---10--10---12----------------------9---7---------------|
|---------------------------------10----------------------7-------------------|

|-----10---10--10---10-----------------------7--|
|-----12---13--12---10-----------------------7--|
|-9---12---12--12---11---11-12-11-14-12-11---7--|
|-9---12---12--12---12---12-12-12-12-12-12---9--|
|-----10---10--10---12-----------------------9--|
|-------------------10-----------------------7--|

Outro:
|-------------10-------------------10-------------------10---------------10--|
|-------------11-------------------11-------------------11---------------11--|
|-11---12-11--12---9---11---12-11--12---9---11---12-11--12---11---12-11--12--|
|-11---12-11--12---9---11---12-11--12---9---11---12-11--12---11---12-11--12--|
|-9----10-9---10---7---9----10-9---10---7---9----10-9---10---9----10-9---10--|
|----------------------------------------------------------------------------|

|-7---10--9---|
|-8---11--10--|
|-9---12--11--|
|-9---12--11--|
|-7---10--9---|
|-------------|


TRANCE    Printable Text Version

Tabbed by Samhain138


*Note: Exact number of strums not shown*

There is constant Palm Muting of the last chord between each small set of chords.

Intro: Fades in with Palm Muting of first chord
|-------------------------------------------------------------------------------|
|-------------------------------------------------------------------------------|
|-4--5--4------4--5--4------9--10--9------4--5--4------11--12--11------4--5--4--|
|-4--5--4------4--5--4------9--10--9------4--5--4------11--12--11------4--5--4--|
|-2--3--2------2--3--2------7--8---7------2--3--2------9---10--9-------2--3--2--|
|-------------------------------------------------------------------------------|

Verse 1:
|-------------------------------------------------------------------------------|
|-3------------------3------------------8---------------------3-----------------|
|-4------4--5--7--5--4------4--5--7--5--9------9--10--13--10--4------4--5--7--5-|
|-4------4--5--7--5--4------4--5--7--5--9------9--10--13--10--4------4--5--7--5-|
|-2------2--3--5--3--2------2--3--5--3--7------7--8---11--8---2------2--3--5--3-|
|-------------------------------------------------------------------------------|

Chorus:
|-9---------------|
|-10--------------|
|-11---10---9--7--|
|-11---10---9--7--|
|-9----8----7--5--|
|-----------------|

Pre-Verse 1:
|--------8---7------8---7--|
|-3------8---7------8---7--|
|-4------8---7------8---7--|
|-4------10--9------10--9--|
|-2------10--9------10--9--|
|--------8---7------8---7--|

Verse 2: Same as Verse 1

Chorus 2: Same as Chorus 1

Bridge:
|-------------------------------------------------------------------------|
|-3------10---------------------------------------------------------------|
|-4------11---------------------------------------------9-10-13-10-9-10-9-|
|-4------11---9-10-12-10-9-10-9-10-9-10-12-10-9-10-9-10-9-10-13-10-9-10-9-|
|-2------9----9-10-12-10-9-10-9-10-9-10-12-10-9-10-9-10-7-8--11-8--7-8--7-|
|-------------7-8--10-8--7-8--7-8--7-8--10-8--7-8--7-8--------------------|

|------------------------------------------------------------------------|
|------------------------------------------------------------------------|
|-10----------------------11-12-14-12-11-12-11-12------------------------|
|-10-9-10-12-10-9-10-9-10-11-12-14-12-11-12-11-12-9-10-12-10-9-10-9-10-9-|
|-8--9-10-12-10-9-10-9-10-9--10-12-10-9--10-9--10-9-10-12-10-9-10-9-10-9-|
|----7-8--10-8--7-8--7-8--------------------------7-8--10-8--7-8--7-8--7-|

*Note: The opening note here is started earlier in the previous bar*
|-----------------------------------------------------------------------2--|
|-----------------------5--7------------3---5--6--5-6-5-----5--6--5-----3--|
|-6--------4---4--5--7--------7--5--4---4----------------4-----------4--4--|
|--------4------------------------------4-------------------------------4--|
|-----------------------------------------------------------------------2--|
|--------------------------------------------------------------------------|

|-------------------------------------9---------------------------|
|---------------------------------3---10-----------------------9--|
|--------------------------5--4---4---11---10-9-10-9-10-9-10-9-10-|
|-4--5--7--4-5-4--4---------------4---11---10-9-10-9-10-9-10-9-10-|
|--------------------5--4---------2---9----8--7-8--7-8--7-8--7-8--|
|-----------------------------------------------------------------|

|------------|
|-8-9--8-9---|
|-9-10-9-10--|
|-9-10-9-10--|
|-7-8--7-8---|
|------------|

Pre-Verse 2:
|-7------8---7------8---7------8---7------8---7--|
|-7------8---7------8---7------8---7------8---7--|
|-7------8---7------8---7------8---7------8---7--|
|-9------10--9------10--9------10--9------10--9--|
|-9------10--9------10--9------10--9------10--9--|
|-7------8---7------8---7------8---7------8---7--|

Verse 3: Same as Verse 1

Chorus 3: Same as Chorus 1

End: Same as Pre-Verse 2 but ends with this: 
|------7--|
|-----7---|
|----7----|
|---9-----|
|--9------|
|-7-------|


OUTLAW HEART    Printable Text Version

Tabbed by Samhain138

 

*Note: Exact amount of strums and palm muting not shown*
*There is lots of tremblo in this song. I had troubles hearing the
rhythm guitar so most of the chords are what I THINK he's playing*
*Once again, there is no Steel Pedal Guitar shown here, I don't know
how to play it*

Intro:
|---------------------------------------------------------------------------|
|---------------------------------------------------------------------------|
|---------------------------------------------------------------------------|
|---------------------------------------------------------------------------|
|-4-4-4--3--1---1-1-1--3--4---4-4-4--3--1--1-1--3--1--3--1--3------4--3--1--|
|--------------------------------------------------------------4------------|

|----------------------------------------------------------------|
|----------------------------------------------------------------|
|----------------------------------------------------------------|
|----------------------------------------------------------------|
|-1-1-1--3--4---4-4-4--3--1--1-1--3--1--3--1--3--4--4-4-4--6--8--|
|----------------------------------------------------------------|

Verse 1:
|-6---9----6---9----6---9----6---9---|
|-6---9----6---9----6---9----6---9---|
|-6---10---6---10---6---10---6---10--|
|-8---11---8---11---8---11---8---11--|
|-8---11---8---11---8---11---8---11--|
|-6---9----6---9----6---9----6---9---|

Chorus 1:
|-2---9----2---9----2---9----2---4--|
|-2---9----2---9----2---9----2---4--|
|-3---10---3---10---3---10---3---5--|
|-4---11---4---11---4---11---4---6--|
|-4---11---4---11---4---11---4---6--|
|-2---9----2---9----2---9----2---4--|

Interlude 1:
|-----9---------9--11--9--11/13--11--9-------9-----------------9---|
|-/11---11-------------------------------/11---11----------11--9---|
|----------10--------------------------------------10--10------10--|
|------------------------------------------------------------------|
|------------------------------------------------------------------|
|------------------------------------------------------------------|

|------9---------9--11--9--11/13--11--9--------9----------------9---|
|-9/11---11-------------------------------9/11---11---------11--9---|
|-----------10--------------------------------------10--10------10--|
|-------------------------------------------------------------------|
|-------------------------------------------------------------------|
|-------------------------------------------------------------------|

Transition:
|-6--6-6--6--6-6---9---9-9--9---9-9---6--6----6--6-----9---9-9--9---9-9--|
|-6--6-6--6--6-6---9---9-9--9---9-9---6----6--6----6---9---9-9--9---9-9--|
|-6-------6--------10-------10--------6-------6--------10-------10-------|
|-8-------8--------11-------11--------8-------8--------11-------11-------|
|-8-------8--------11-------11--------8-------8--------11-------11-------|
|-6-------6--------9--------9---------6-------6--------9--------9--------|

Verse 2: Same as Verse 1 but twice as long

Chorus 2: Same as Chorus 1 but twice as long

Interlude 2:
|-----9---------9--11--9--11/13--11--9-------9-----------------9---|
|-/11---11-------------------------------/11---11----------11--9---|
|----------10--------------------------------------10--10------10--|
|------------------------------------------------------------------|
|------------------------------------------------------------------|
|------------------------------------------------------------------|

|------9---------9--11--9--11/13--11--9--------9----------------9---|
|-9/11---11-------------------------------9/11---11---------11--9---|
|-----------10--------------------------------------10--10------10--|
|-------------------------------------------------------------------|
|-------------------------------------------------------------------|
|-------------------------------------------------------------------|

|-----14-----16p14-----14-----13-------14-----16p14-----14-----13-------14-----|
|-/14----14---------14----14--14---/14----14---------14----14--14---/14----14--|
|------------------------------------------------------------------------------|
|------------------------------------------------------------------------------|
|------------------------------------------------------------------------------|
|------------------------------------------------------------------------------|

|-16p14-----14---------13----14p13----13----------14------14----14----14--16--|
|--------14----14---14----14-------14----14---/14----14------14----14-----16--|
|-----------------------------------------------------------------------------|
|-----------------------------------------------------------------------------|
|-----------------------------------------------------------------------------|
|-----------------------------------------------------------------------------|

Chorus 3: Same as Chorus 2

Outro: Same chords and rhythm as Transition only about twice as long


LAST NIGHT    Printable Text Version

Tabbed by Samhain138

 

*Note: Exact amount of strums, palm muting and tremblo not shown*

Intro:
|--------------------------------------------------------------------|
|--------------------------------------------------------------------|
|--------------------------------------------------------------------|
|-2------2---2--2---2---4---2---2--2---2---4---2---2--2---2---4---5--|
|-2------2---2--2---3---5---2---2--2---3---5---2---2--2---3---5---7--|
|-0------0---3^-0---0---0---0---3^-0---0---0---0---3^-0---0---0---0--|

Verse 1: Play this twice
|---------------------------------------------------------|
|---------------------------------------------------------|
|---------------------------------------------------------|
|-2---2--2---2---4---2---2--2---4---2---2--2---2---4---5--|
|-2---2--2---3---5---2---2--3---5---2---2--2---3---5---7--|
|-0---3^-0---0---0---0---3^-0---0---0---3^-0---0---0---0--|

Verse 1 End: Play this out of Verse 1 palm muted
|-----|
|-----|
|-----|
|-9\--|
|-----|
|-----|

Chorus 1:
|------------------------|
|------------------------|
|------------------------|
|-5---4---5---4---9---7--|
|-5---4---5---4---9---7--|
|-3---2---3---2---7---5--|

Interlude Part 1:
|--------------------------------------------------------------------------|
|--------------------------------------------------------------------------|
|--------------------------------------------------------------------------|
|----------------------2----------4--------------------7-7-7-5-4--5-5-5----|
|----------------3-3-3---3--5-5-5---5-----------------------------------5--|
|-0--0-3-3-3-0--------------------------0--0-3-3-3-0-----------------------|

|--------------------------------------------|
|-----------------------------------------5--|
|--------------------------------------4-----|
|-------------------2--------4-----5---------|
|----------------3-----3--5-----5--7---------|
|-0--0-3-3-3-0-------------------------------|

Interlude Part 2:
|-12------12-----------14------12---14-12------12-----14---/12---14-12------12--|
|-12---13----13--13/15----15---12---12-12---13----13--15---/12---12-12---13-----|
|-------------------------------------------------------------------------------|
|-------------------------------------------------------------------------------|
|-------------------------------------------------------------------------------|
|-------------------------------------------------------------------------------|

|--------14-----15---19--15---15---19--17--15--19--17--15--19--17--|
|-13--15----15--17-------------------------------------------------|
|------------------------------------------------------------------|
|------------------------------------------------------------------|
|------------------------------------------------------------------|
|------------------------------------------------------------------|

|-15---14--15-17-15-14-15-14--14---15---19--17--15--19--17--15--19--17--15--|
|-----------------------------15---15---15--15--15--15--15--15--15--15--15--|
|---------------------------------------------------------------------------|
|---------------------------------------------------------------------------|
|---------------------------------------------------------------------------|
|---------------------------------------------------------------------------|

|-14---15--14--|
|-15---15--15--|
|--------------|
|--------------|
|--------------|
|--------------|

Interlude Part 3: Palm muted
|-------------------------------------------------------------|
|-------------------------------------------------------------|
|-------------------------------------------------------------|
|-------------------------------------------------------------|
|------------3---5--------------3---5--------------3---5---7--|
|-0---3--0-----------0---3--0-----------0---3--0--------------|

Verse 2:
|-0---0---0---0-------------------------------------|
|-0---0---0---0-------------------------------------|
|-0---0---0---0-------------------------------------|
|-2---2---4---2---2---4---2------2---------4-----5--|
|-2---3---5---2---3---5---2---3-----3---5-----5--7--|
|-0---0---0---0---0---0---0----------------------0--|

|-0---0---0---0---0---0---0---0---0---0--|
|-0---0---0---0---0---0---0---0---0---0--|
|-0---0---0---0---0---0---0---0---0---0--|
|-2---2---4---2---2---4---2---2---4---5--|
|-2---3---5---2---3---5---2---3---5---7--|
|-0---0---0---0---0---0---0---0---0---0--|

Chorus 2: Same as Chorus 1

End:
|-0--|
|-0--|
|-0--|
|-2--|
|-2--|
|-0--|


                                                                      Website Design by Samhain138

                                                                                                                 Copyrights

                                                                                         http:// thevalleyofdreams.tripod.com/