Make your own free website on Tripod.com

[Tiger Army II: Power Of Moonlite]

 

Prelude: Call Of The Ghost Tigers

Towards Destiny

Incorporeal

Power Of Moonlite

When Night Comes Down

Grey Dawn Breaking

Cupid's Victim

Valley Of Dreams

Annabel Lee

In The Orchard

Under Saturn's Shadow

F.T.W.

Remembered Forever

 


PRELUDE: CALL OF THE GHOST TIGERS    Printable Text Version

Tabbed by Samhain138

 

*Note: Exact amount of strums and palm muting not shown*
*There is lots of tremblo used in this song*

Part 1: Played 4 times
|-----------------|
|-----------------|
|-11-11/12\11-11--|
|-----------------|
|-----------------|
|-----------------|

Part 2: Played 4 times
|-9---9-/10\9---9---|
|-10--10/11\10--10--|
|-11--11/12\11--11--|
|-11--11/12\11--11--|
|-9---9-/10\9---9---|
|-------------------|

Part 3: Played 4 times
|-9----10-9----|
|-10---11-10---|
|-11---12-11---|
|-11---12-11---|
|-9----10-9----|
|--------------|

End:
|-2---2---2---2--|
|-2---2---2---2--|
|-3---3---3---2--|
|-4---4---4---4--|
|-4---4---4---4--|
|-2---2---2---2--|


INCORPOREAL    Printable Text Version

Tabbed by Samhain138

 

*Note: Exact amount of strums not shown*

Intro: Fades in
|-2--|
|-3--|
|-4--|
|-4--|
|-2--|
|----|

Verse 1:
|--------------------------------------------------|
|-3---8---10------3---8---10-----------------------|
|-4---9---11------4---9---11------7---6---4--------|
|-4---9---11------4---9---11------7---7---5---5-7--|
|-2---7---9-------2---7---9-------5---7---5---5-7--|
|-------------------------------------5---3---3-5--|

Bridge:
|------------------------------------------------------------|
|----------------------8---10------------------------8---10--|
|-11----11-14-11-------9---11---11----11-14-11-------9---11--|
|----12----------14-\--9---11------12----------14-\--9---11--|
|----------------------7---9-------------------------7---9---|
|------------------------------------------------------------|

Verse 2: Same as Verse 1

Chorus 1:
|--------------------------------------------------------------|
|-3---10-----------8--------------------8--------------------8-|
|-4---11---7---6---9------------7---6---9------------7---6---9-|
|-4---11---7---7---9---5----5---7---7---9---5----5---7---7---9-|
|-2---9----5---7---7---5----5---5---7---7---5--5-5---5---7---7-|
|--------------5-------3--3/3-------5-------3--5-3-------5-----|

|-------------|
|-------------|
|-------------|
|--5---5---7--|
|--5---5---7--|
|--3---3---5--|

Bridge 2: Same as Bridge 1

Verse 3: Same as Verse 1

Chorus 2: Same as Chorus 1

Bridge 3: Same as Bridge 1 but twice as long

End of Song:
|----------------2-2-2------------------------|
|-8---6---3------------3-3-3---------------3--|
|-9---7---4------------------4-4-4---------4--|
|-9---7---4------------------------4-4-4---4--|
|-7---5---2--------------------------------2--|
|---------------------------------------------|


POWER OF MOONLITE    Printable Text Version

Tabbed by Samhain138

 

*Note: Exact amount of strums not shown, also, slide guitar is not my specialty
so it may not be exactly right*

Intro:
|------------------------------------------------------------------------|
|-3-----3-----3----------3-----3-----3----------3-----3-----3------------|
|-4---4-4---4-4------7---4---4-4---4-4------7---4---4-4---4-4-----7------|
|-4---4-4---4-4---5--7---4---4-4---4-4---5--7---4---4-4---4-4--5--7--4---|
|-2---0-2---0-2---5--5---2---0-2---0-2---5--5---2---0-2---0-2--5--5--4---|
|-----------------3----------------------3---------------------3-----2---|

Verse 1:
|-------------------------------------------------------------------------------|
|-3-----3-----3----------3-----3-----3----------3-----3-----3----------3-----3--|
|-4---4-4---4-4------7---4---4-4---4-4------7---4---4-4---4-4------7---4---4-4--|
|-4---4-4---4-4---5--7---4---4-4---4-4---5--7---4---4-4---4-4---5--7---4---4-4--|
|-2---0-2---0-2---5--5---2---0-2---0-2---5--5---2---0-2---0-2---5--5---2---0-2--|
|-----------------3----------------------3----------------------3---------------|

|-------------|
|---3---------|
|-4-4------7--|
|-4-4---5--7--|
|-0-2---5--5--|
|-------3-----|

Chorus 1:
|-----2---------------2---------------2-------------------------------------|
|-3---3---2-------3---3---2-------3---3---2-------------------------3-----3-|
|-4---2---2---4---4---2---2---4---4---2---2---4---6---4---7---------4---4-4-|
|-4---0---2---5---4---0---2---5---4---0---2---5---7---5---7---5-----4---4-4-|
|-2-------0---5---2-------0---5---2-------0---5---7---5---5---5-----2---0-2-|
|-------------3---------------3---------------3---5---3-------3-------------|

|------------------------------------|
|---3----------3-----3-----3---------|
|-4-4------7---4---4-4---4-4------7--|
|-4-4---5--7---4---4-4---4-4---5--7--|
|-0-2---5--5---2---0-2---0-2---5--5--|
|-------3----------------------3-----|

Slide Guitar Part 1: Rhythm
|------------------------------------|
|-3--------3--------3--------3-------|
|-4---10---4---10---4---10---4---10--|
|-4---10---4---10---4---10---4---10--|
|-2---8----2---8----2---8----2---8---|
|------------------------------------|

Slide Guitar Part 1: Lead
|-----7---3/5-------7---7--7---------7---2-2-2/5---12-12-9-10-10-----------|
|-5/7-----------5/7-----7--7-----5/7-----------------------------10--------|
|----------------------------5--------------------------------------11/10--|
|--------------------------------------------------------------------------|
|--------------------------------------------------------------------------|
|--------------------------------------------------------------------------|

Verse 2: Same as Verse 1

Chorus 2: Minor Difference from first chorus
|-----2---------------2---------------2------------------------------------------|
|-3---3---2-------3---3---2-------3---3---2------------------------------3-----3-|
|-4---2---2---4---4---2---2---4---4---2---2---4----4---6---4---7---------4---4-4-|
|-4---0---2---5---4---0---2---5---4---0---2---5----5---7---5---7---5-----4---4-4-|
|-2-------0---5---2-------0---5---2-------0---5----5---7---5---5---5-----2---0-2-|
|-------------3---------------3---------------3--2/3---5---3-------3-------------|

|------------------------------------|
|---3----------3-----3-----3---------|
|-4-4------7---4---4-4---4-4------7--|
|-4-4---5--7---4---4-4---4-4---5--7--|
|-0-2---5--5---2---0-2---0-2---5--5--|
|-------3----------------------3-----|

Slide Guitar Part 2: Same as Slide Guitar Part 1

Slide Guitar Part 3: Rhythm
|-------------------------------------------------------------------------------|
|-------------------------3-----3-----3----------3-----3-----3----------3-----3-|
|-6---4---6---4---6---4---4---4-4---4-4------7---4---4-4---4-4------7---4---4-4-|
|-7---5---7---5---7---5---4---4-4---4-4---5--7---4---4-4---4-4---5--7---4---4-4-|
|-7---5---7---5---7---5---2---0-2---0-2---5--5---2---0-2---0-2---5--5---2---0-2-|
|-5---3---5---3---5---3-------------------3----------------------3--------------|

|----------------------------------|
|---3----------3-----3-----3-------|
|-4-4------7---4---4-4---4-4---10--|
|-4-4---5--7---4---4-4---4-4---10--|
|-0-2---5--5---2---0-2---0-2---8---|
|-------3--------------------------|

Slide Guitar Part 3: Lead
|-17-17-----------------17-17--------------------7---10---7---10---/7--/7--|
|-------17-17-14---12---------17-17-14---12------7---10---7---10---/7--/7--|
|-------------14---12---------------14---12--------------------------------|
|--------------------------------------------------------------------------|
|--------------------------------------------------------------------------|
|--------------------------------------------------------------------------|

|/7---10---/7--/7--/7---1--|
|/7---10---/7--/7--/7---1--|
|--------------------------|
|--------------------------|
|--------------------------|
|--------------------------|


CUPID'S VICTIM    Printable Text Version

Tabbed by Samhain138

 

*Note: Exact amount of strums and palm muting not shown*

Verse 1:
|-9----6---9----6---9----6---9----6--|
|-9----6---9----6---9----6---9----6--|
|-10---6---10---6---10---6---10---6--|
|-11---8---11---8---11---8---11---8--|
|-11---8---11---8---11---8---11---8--|
|-9----6---9----6---9----6---9----6--|

Transition 1:
|----------------------------------------|
|----------------------------------------|
|-/11---/11---/11---/11---5---6---8---5--|
|-/11---/11---/11---/11---6---6---6---6--|
|-/9----/9----/9----/9----6---6---6---6--|
|----------------------------------------|

Chorus 1:
|-9---11--13---9----11---9---11--13---9----11---9---11--13---9----11---9---11--|
|-9---9---9----11---13---9---9---9----11---13---9---9---9----11---13---9---9---|
|------------------------------------------------------------------------------|
|------------------------------------------------------------------------------|
|------------------------------------------------------------------------------|
|------------------------------------------------------------------------------|

|-13---9----11--|
|-9----11---13--|
|---------------|
|---------------|
|---------------|
|---------------|

Bridge 1:
|----------------------------------------------------------------------|
|----------------------------------------------------------------------|
|-10--------10---11---11---10---11---10--------10---11---11---10---11--|
|-11---11---11---11---11---11---11---11---11---11---11---11---11---11--|
|-11---11---11---9----11---11---9----11---11---11---9----11---11---9---|
|-9----11---9----9----9----9----9----9----11---9----9----9----9----9---|

Verse 2: Same as Verse 1

Transition 2: Same as Transition 1

Chorus 2: Same as Chorus 1

Bridge 2: Same as Bridge 1

Chorus 3:
|-9---11---13---9----11---9---11---13---9----11---9---11---13---9----11---9---11-|
|-9---9----9----11---13---9---9----9----11---13---9---9----9----11---13---9---9--|
|--------------------------------------------------------------------------------|
|--------------------------------------------------------------------------------|
|--------------------------------------------------------------------------------|
|--------------------------------------------------------------------------------|

|-13---9----11---13---14---16---14---16---13---14---16---14---16---13---14---16-
|-9----11---13---14---14---14---14---16---14---14---14---14---16---14---14---14-
|-------------------------------------------------------------------------------
|-------------------------------------------------------------------------------
|-------------------------------------------------------------------------------
|-------------------------------------------------------------------------------

|-14---16---13---14---16---14---16--|
|-14---16---14---14---14---14---16--|
|-----------------------------------|
|-----------------------------------|
|-----------------------------------|
|-----------------------------------|

Outro:
|---------------|
|---------------|
|-10--------10--|
|-11---11---11--|
|-11---11---11--|
|-9----11---9---|


VALLEY OF DREAMS    Printable Text Version

Tabbed by Samhain138

 

*Note: Exact number of strums not shown*

Intro: Clean guitar then distorted guitar
|--------2----------------7------------------------------2------------------|
|----------3----------------8-------3-----3----------------3----------------|
|------4-----4----------9-----9-----4---4-4---4--------4-----4----------9---|
|-----4--------4-------9--------9---4---4-4---4-------4--------4-------9----|
|-2--2----------------7-------------2---0-2---0---2--2----------------7-----|
|------------------7-----------------------------------------------7--------|

|-7-------------------------------------------------------|
|---8--------------5---8---3----3------3---8---3----3-----|
|-----9-----6------4---9---4--4-4--4---4---9---4--4-4--4--|
|-------9---7------4---9---4--4-4--4---4---9---4--4-4--4--|
|-----------7------2---7---2--0-2--0---2---7---2--0-2--0--|
|-----------5---------------------------------------------|

Verse 1:
|----------------------------------8--------------------------|
|-3---8-----------3---8------9-----9---3-----------3----------|
|-4---9-----------4---9--------10------4-----------4---7---6--|
|-4---9-----------4---9----------------4-----------4---7---7--|
|-2---7---4---2---2---7---8------------2---4---2---2---5---7--|
|---------5---3----------------------------5---3-----------5--|

Bridge 1 and Chorus 1:
|-----0-----------0-----------0-----------0-----------0-----------0--------|
|--------0-----------0-----------0-----------0-----------0-----------0-----|
|----------0-----------0-----------0-----------0-----------0-----------0---|
|-5-----------4-----------5-----------4-----------5-----------4------------|
|-5-----------4-----------5-----------4-----------5-----------4------------|
|-3-----------2-----------3-----------2-----------3-----------2------------|
                                                (-P.M.-)
|-----0--------------------------------------------------------------------|
|--------0--------3-------------2---0-2---0-------------------3------------|
|----------0--3---4------12-7---2---2-2---2-------------------4------12-7--|
|-5-----------3---4------12-7---2---2-2---2---5--5-5-5-5--5---4------12-7--|
|-5-----------1---2------10-5---0---0-0---0---5--5-5-5-5--5---2------10-5--|
|-3-------------------------------------------3--3-3-3-3--3----------------|
                  (-P.M.-)
|--------------------------------------------------------------|
|-2---0-2---0-------------------3---0---3---0---3---0---3---0--|
|-2---2-2---2-------------------4---2---4---2---4---2---4---2--|
|-2---2-2---2---5--5-5-5-5--5---4---3---4---3---4---3---4---3--|
|-0---0-0---0---5--5-5-5-5--5---2---4---2---4---2---4---2---4--|
|---------------3--3-3-3-3--3----------------------------------|

Verse 2: Same as Verse 1

Bridge 2 and Chorus 2: Same as Bridge 1 and Chorus 1

Last Part: 
|-----------------------------------------------------------------|
|-3---0---3---0---3---0---3---0---3---0---3---0---3---0---3---0---|
|-4---2---4---2---4---2---4---2---4---2---4---2---4---2---4---2---|
|-4---3---4---3---4---3---4---3---4---3---4---3---4---3---4---3---|
|-2---4---2---4---2---4---2---4---2---4---2---4---2---4---2---4---|
|-----------------------------------------------------------------|

End: 
|------------0-------0-------0------|
|-3------0----0-------0-------0-----|
|-4------2-----2-------2-------2----|
|-4------3------3-------3-------3---|
|-2------4-------4-------4-------4--|
|-----------------------------------|


ANNABEL LEE    Printable Text Version

Tabbed by Samhain138

 

*Note: Exact amount of strums and palm muting not shown* 

Intro:
|------------|
|------------|
|-9---8---6--|
|-9---9---7--|
|-7---9---7--|
|-----7---5--|

Verse 1:
|------------------------------------------------------------------------------|
|------------------------------------------------------------------------------|
|-9---8---4---6--8---9---8---4---6--8---9---11---8---4---6--8---9---8---4---6--|
|-9---9---6---7--9---9---9---6---7--9---X---X----9---6---7--9---9---9---6---7--|
|-7---9---6---7--9---7---9---6---7--9---7---9----9---6---7--9---7---9---6---7--|
|-----7---4---5--7-------7---4---5--7------------7---4---5--7-------7---4---5--|

Chorus 1:
|----------------------------------------|
|-8--4------8--4------8--4------8--4-----|
|-9--5--6---9--5--6---9--5--6---9--5--6--|
|-9--5--7---9--5--7---9--5--7---9--5--7--|
|-7--3--7---7--3--7---7--3--7---7--3--7--|
|-------5---------5---------5---------5--|

Verse 2:
|---------------------------------------------------------------------------|
|---------------------------------------------------------------------------|
|-9---8---4---6--8---9---8---4---6---9---11---8---4---6--8---9---8---4---6--|
|-9---9---6---7--9---9---9---6---7---X---X----9---6---7--9---9---9---6---7--|
|-7---9---6---7--9---7---9---6---7---7---9----9---6---7--9---7---9---6---7--|
|-----7---4---5--7-------7---4---5------------7---4---5--7-------7---4---5--|

Bridge 1:
|--------------------------------------------------------------------------|
|--------------------------------------------------------------------------|
|-9---11---6---8---9---11---6---8---9-8---9---11---6---8---9---11---6---8--|
|-9---11---7---9---9---11---7---9---9-9---9---11---7---9---9---11---7---9--|
|-7---9----7---9---7---9----7---9---9-9---7---9----7---9---7---9----7---9--|
|----------5---7------------5---7---7-7------------5---7------------5---7--|

Chorus 2: Same as Chorus 1

Verse 3: Same as Verse 2

Bridge 2: Same as Bridge 1

Chorus 3: Same as Chorus 1

Outro: This was a little tricky because I think there's 2 guitars here. I stopped
tabbing this when the song fades and the two guitars break off from each other and
do different things.
|----------------------------------------------------------------------------------|
|-0---0---0--0--0-0---0--0--0--0---0--0--0---0---0--0--0---0--0--0--0---0---0---0--|
|-9---11--9--8--9-8---9--8--9--11--9--8--9---11--9--8--4---6--8--9--11--13--14--16-|
|-9---9---9--9--9-9---9--9--9--9---9--9--9---9---9--9------------------------------|
|----------------------------------------------------------------------------------|
|----------------------------------------------------------------------------------|

|--------------------------------------------------------------------------------|
|-0--0--0----0--0---0-0--0-0--0---0-0--0-0--0-0--0-0--0-0--0--0--0--0--0--2--4-5-|
|-14-13-14---13-11--8-9--8-9--11--9-8--8-9--8-9--8-9--8-9--4--2--1--2--4--2--1-2-|
|--------------------------------------------------------------------------------|
|--------------------------------------------------------------------------------|
|--------------------------------------------------------------------------------|


IN THE ORCHARD    Printable Text Version

Tabbed by Samhain138

 

*Note: Exact amount of strums and palm muting not shown*

*NO STEEL PEDAL GUITAR SHOWN*

In this song, Nick 13 varies his picking of the chords for each part.
I didn't bother trying to hear every single little string he picks
seperately. It'll eventually just come to you as you play.

Intro: All guitars clean
|-5---6---5---6---6---1---6---5--------|
|-6---6---6---6---8---1---6---6-6---6--|
|-7---7---7---7---8---3---7---7---7-7--|
|-7---8---7---8---8---3---8---7--------|
|-5---8---5---8---6---3---8---5--------|
|-----6-------6-------1---6------------|

Verse 1: Same as Intro but twice as long

Riff 1:
|-------------------------------------------------------------------------------|
|-------------------------------------------------------------------------------|
|-------------------------------------------------------------------------------|
|------------------------------------------------3------------------------------|
|-1--1-1-1--1-1-1--1-1-1--3------1--1-1-1--3-3/5----5p3-1-----1---6--6-6-6--6-6-|
|----------------------------3-----------------------------3--------------------|

|--------------------------------------------------------------------------|
|--------------------------------------------------------------------------|
|--------------------------------------------------------------------------|
|------------------------7-8--8\7--5--7--8--8-8-8--10--10/11--10/11--11p10-|
|-6--8-8-8--6--8--8-8-8----------------------------------------------------|
|--------------------------------------------------------------------------|

|------------|
|------------|
|------------|
|-8------8---|
|----10--10--|
|------------|

Transition:
|-6---3---6---3--|
|-6---3---6---3--|
|-7---3---7---3--|
|-8---5---8---5--|
|-8---5---8---5--|
|-6---3---6---3--|

Verse 2: Same as Verse 1

Chorus 1:
|-6---3---6---3---6---8---8--8----6---5--------|
|-6---3---6---3---8---10--11-10---6---6-6---6--|
|-7---3---7---3---8---10--10-10---7---7---7-7--|
|-8---5---8---5---8---10--10-10---8---7--------|
|-8---5---8---5---6---8---8--8----8---5--------|
|-6---3---6---3-------------------6------------|

Transition 2:
|-6---6---6---6---6---8----6---6--6---6--|
|-6---8---6---8---8---10---6---8----8-8--|
|-7---7---7---7---8---10---7---7------7--|
|-8-------8-------8---10---8-------------|
|-8-------8-------6---8----8-------------|
|-6-------6----------------6-------------|

Riff 2:
|--------------------------------------------------------------------|
|--------------------------------------------------------------------|
|--------------------------------------------------------------------|
|--------------------------------3-----------------------------------|
|-1--1--1--1-1-1--1-1-1--3--3/5------1--1-1-1--1-1-1--1-1-1--3--3/5--|
|--------------------------------------------------------------------|

Verse 3: Same as Verse 1

Chorus 2: Same as Chorus 1

Outro:
|-10---6---10---6---6---8----10---10----10---6---5---6---5---6---8----6---5--|
|-10---6---10---6---8---10---10------10-10---6---6---6---6---8---10---6---6--|
|-10---7---10---7---8---10---10--------------7---7---7---7---8---10---7---7--|
|-12---8---12---8---8---10---12--------------8---7---8---7---8---10---8---7--|
|-12---8---12---8---6---8----12--------------8---5---8---5---6---8----8---5--|
|-10---6---10---6------------10--------------6-------6----------------6------|


UNDER SATURN'S SHADOW    Printable Text Version

Tabbed by Samhain138

 

*Note: Exact amount of strums and palm muting not shown*

Intro:
|-------------------------------------------------------------------------------|
|-------------------------------------------------------------------------------|
|-------------------------------------------------------------------------------|
|-------------------------------------------------------------------------------|
|-------------------------------------------------------------------------------|
|-14\---0---7-0-0-3-0-0-5-8---10---0---7-0-0-3-0-0-5-8---10---0---7-0-0-3-0-0-5-|

|----------------------------------------------------------------|
|----------------------------------------------------------------|
|----------------------------------------------------------------|
|-------------------------------------9---12--9---12--9---12--9--|
|-------------------------------------9---12--9---12--9---12--9--|
|-8---10---0---7-0-0-3-0-0-5-8---10---7---10--7---10--7---10--7--|

Pre-Verse: x2
|--------------------------------|
|--------------------------------|
|-9---11-12-11-12---11---12--11--|
|-9---9--9--9--10---12---10--12--|
|--------------------------------|
|--------------------------------|

Verse 1: Same as Pre-Verse but x4

Pre-Chorus 1:
|----------------------------------------|
|----------------------------------------|
|-12---11---9----11---12---11---9----11--|
|-12---12---10---12---12---12---10---12--|
|-10---12---10---12---10---12---10---12--|
|------10---8----10--------10---8----10--|

Chorus 1: Same as Pre-Verse

Verse 2: Same as Verse 1

Pre-Chorus 2:
|-------------------------------------------------------------------------------|
|-------------------------------------------------------------------------------|
|-12---11---9----11---12---11---9----11---12----------------------9----11---12--|
|-12---12---10---12---12---12---10---12---12-----------7h9p7------10---12---12--|
|-10---12---10---12---10---12---10---12---10------9-10-------10-9-10---12---10--|
|------10---8----10--------10---8----10--------10-----------------8----10-------|

|-----------------------------|
|-----------------------------|
|--------------------9----11--|
|---------7h9p7------10---12--|
|----9-10-------10-9-10---12--|
|-10-----------------8----10--|

Pre-Chorus: Same as Pre-Verse

Chorus 2: Same as Chorus 1 but twice as long

Outro:
|--------------------------------------------------------------------|
|-----------------------------------------------------------------8--|
|-9---11-12-11-12---------11-12-14-12-11h12p11----12-------11-----9--|
|-9---9--9--9--10---10/12----------------------10----10-12----12--9--|
|--------------------------------------------------------------------|
|--------------------------------------------------------------------|


                                                                      Website Design by Samhain138

                                                                                                                 Copyrights

                                                                                         http:// thevalleyofdreams.tripod.com/